» » »

Survival Of The Sickest Tabs (ver.1)

Artists:  A B C D E F G H I J K L M N O P Q R S T U V W X Y Z # 

Survival Of The Sickest Tabs (ver.1)

Saliva
Rating:
0/5 (0 votes)

Hard to play? Try these video lessons and learn fast.
                Survival of the Sickest   by Saliva

(Yea, this one has the solo :þ)
s=slide
h=hammer
p=pulloff
b=bend
r=repeated bend

Tremolio Petal (Assumably)
e-------------------------------------------------|  Intro
b-------------------------------------------------|
g-------------------------------------------------|
d-------------------------------------------------|      X4
a-------------------------------------------------|
d--2--2--0--2--2--5--5--5-------------------------|
End Tremolio Petal

e-------------------------------------------------|  Main Riff
b-------------------------------------------------|
g-------------------------------------------------|
d--2--2--0--2--2--5*--5*--5*----------------------|      X8
a--2--2--0--2--2--5*--5*--5*----------------------|
d--2--2--0--2--2--5*--5*--5*----------------------|
*On the 4th and 8th time play 5 as 0

e-------------------------------------------------|  Verse 1
b-------------------------------------------------|
g-------------------------------------------------|
d--2--2--0--2--2--5--5--5-------------------------|      X4
a--2--2--0--2--2--5--5--5-------------------------|
d--2--2--0--2--2--5--5--5-------------------------|PalmMute

e-------------------------------------------------|  Prechorus 1
b-------------------------------------------------|
g-------------------------------------------------|
d--2-----0-----5-----7----------------------------|      X2
a--2-----0-----5-----7----------------------------|
d--2-----0-----5-----7----------------------------|

e-------------------------------------------------|  Chorus 1
b-------------------------------------------------|
g-------------------------------------------------|
d--2--*---0--*---5--*---7--*----------------------|      X2
a--2--*---0--*---5--*---7--*----------------------|
d--2--*---0--*---5--*---7--*----------------------|
 *Kinda strummy, just play whatever sounds good.

e-------------------------------------------------|  Riff
b-------------------------------------------------|
g-------------------------------------------------|
d--2--2--0--2--2--5*--5*--5*----------------------|      X4
a--2--2--0--2--2--5*--5*--5*----------------------|
d--2--2--0--2--2--5*--5*--5*----------------------|
*On the 4th  time play 5 as 0

e-------------------------------------------------|  Verse 2
b-------------------------------------------------|
g-------------------------------------------------|
d--2--2--0--2--2--5--5--5-------------------------|      X4
a--2--2--0--2--2--5--5--5-------------------------|
d--2--2--0--2--2--5--5--5-------------------------|PalmMute

e-------------------------------------------------|  Prechorus 2
b-------------------------------------------------|
g-------------------------------------------------|
d--2-----0-----5-----7----------------------------|      X2
a--2-----0-----5-----7----------------------------|
d--2-----0-----5-----7----------------------------|

e-------------------------------------------------|  Chorus 2
b-------------------------------------------------|
g-------------------------------------------------|
d--2--*---0--*---5--*---7--*----------------------|      X4
a--2--*---0--*---5--*---7--*----------------------|
d--2--*---0--*---5--*---7--*----------------------|
 *Kinda strummy, just play whatever sounds good.

e-------------------------------------------------|  PreSolo
b-------------------------------------------------|
g-------------------------------------------------|
d--5--7--7--5--7--7--5--7--7--5--7--7--5--5--7----|      X2
a--5--7--7--5--7--7--5--7--7--5--7--7--5--5--7----|
d--5--7--7--5--7--7--5--7--7--5--7--7--5--5--7----|

The Solo  (^dramatically^Dun dun dun...)  With tone that my dirt cheap amp can't achive.
*sigh
e---------------------------------------------------
b---------------------------------------------------
g--0s16r17s2----------------------------------------
d-----------------0h5r6--2p0------------------------
a--------------------------------2p0----------------
d--------------------------------------5--7b9-------

e---------------------------------------------------
b--------------------------17--17p15h17p15----------
g--12--12b13--9h12b13------------------------16p14--
d--12-----------------------------------------------
a---------------------------------------------------
d---------------------------------------------------

e---------------------------------------------------
b---17p15h17p15-------------------------------------
g-----------------------16p14--12h14b15-------------
d--------------------------------------------14p12--
a---------------------------------------------------
d---------------------------------------------------

e---------------------------------------------------
b-----------------------------------------17--------
g---------------------------------------------------
d--------------------13b14--------------------------
a--13p12--12h13-----------13p12p10------------------
d---------------------------------------------------

e---------------------------------------------------
b---------------------------------------------------
g--15h16p13h15--16--16--19--14----------------------
d---------------------------------------------------
a---------------------------------------------------
d---------------------------------------------------

e---------------------------------------------------
b---------------------------------------------------
g---------------------------------------------------
d-----------------------------14--------------------
a---------------------14--17-------12h14--10s12--12-
d--12h14--14--14p12---------------------------------

e---------------------------------------------------|
b---------------------------------------------------|
g---------------------------------------------------|
d---------------------------------------------------|
a--10--12b13--10------------------------------------|
d-------------------14--12h14p12--10--9--7----------|

The lyrics in this post-solo section are too funny to bother with the guitar.
Plus it's just the normal power chords that they've used for the whole song.

e---------------------------------------------------|  Chorus 3
b---------------------------------------------------|
g---------------------------------------------------|
d--2--*---0--*---5--*---7--*------------------------|      X4
a--2--*---0--*---5--*---7--*------------------------|
d--2--*---0--*---5--*---7--*------------------------|
 *Kinda strummy, just play whatever sounds good.

e---------------------------------------------------|  Ending*
b---------------------------------------------------|
g---------------------------------------------------|
d--5--7--7--5--7--7--5--7--7--5--7--7--5--5--7------|      X2
a--5--7--7--5--7--7--5--7--7--5--7--7--5--5--7------|
d--5--7--7--5--7--7--5--7--7--5--7--7--5--5--7------|
*Final strum is 2nd fret d-a-D

There are probably a few problems, mainly with the solo, seeing as this is my first tab ever.
  Carl Williamson
            
Hard to play? Try these video lessons and learn fast. | Correct




comments powered by Disqus
↑ Back to top | Tablatures and chords are parodies/interpretations of the original songs. You may use it for private study, scholarship, research or language learning purposes only