>
 >
Hunt You Down

Hunt You Down Guitar Tabs

Saliva - Hunt You Down chords, tabs, tablatures, lyrics

Guitar lessons | Add/correct | Request | Top 50 tabs Artists:  A B C D E F G H I J K L M N O P Q R S T U V W X Y Z 0-9

Hunt You Down Guitar Tabs – Saliva

CD, Sheet music, Poster

Do you like Hunt You Down? Share with your friends now
Tabs
I promise it and here is. Enjoy.

Aquí está como lo prometí, disfrútenlo.

Intro
D|------------------------------|
A|------------------------------|
F|------------------------------|
C|-----------------------2------|  X3
G|-—2-4--2-4--2-4--4-2p0---2-4--|
C|------------------------------|

D|------------------|
A|------------------|
F|------------------|
C|------------------|
G|-—2-4--2-4--2-4---|
C|------------------|

D|------------------------------|
A|------------------------------|
F|------------------------------|
C|-----------------------2------|  X4
G|-—2-4--2-4--2-4--4-2p0---2-4--|
C|------------------------------|

Verse
D|----13~--12~------|
A|------------------|
F|------------------|
C|------------------|
G|------------------|
C|------------------|

Prechorus
D|------------------|
A|------------------|
F|--4---------------|
C|--4--5------------|
G|--2--3---2--------|
C|---------0--------|

D|------------------|
A|------------------|
F|-4----------------|
C|-4--5-4-----------|
G|-2--3-2-----------|
C|------------------|

Chorus
D|------------------|
A|------------------|
F|-------------9~---|
C|--6-x-4---6-------|
G|--4-x-2---4-------|
C|------------------|

D|--------------------------------------|
A|--------------------------------------|
F|-111111111111--131313131313--9-9-9-9--| x3
C|--x-x-x-x-x-x---x-x-x-x-x-x--x-x-x-x--|
G|--9-9-9-9-9-9--111111111111--7-7-7-7--|
C|--------------------------------------|

D|------------------|
A|------------------|
F|--11--------------| x16
C|---x--------------|
G|---9--------------|
C|------------------|

Intro
Verse
Prechorus
Chorus

Interlude
D|-------------------------------------|
A|---5/21(22)--18~--(slash with pick)--|
F|-------------------------------------| 
C|-------------------------------------|
G|-------------------------------------|
C|-------------------------------------|

Solo
D|-18~~~-15-17-19-17-15-14------------------------------------------------|
A|-------------------------17-15-13-15-13-12-13-12-10-12-10-9-12-10-9(10)-|
F|------------------------------------------------------------------------| 
C|------------------------------------------------------------------------|
G|------------------------------------------------------------------------|
C|------------------------------------------------------------------------|

D|----------------------------------------------------------|
A|----------------------------------------------------------|
F|-----------17---------------------------------------------| 
C|-14-15-17-----17p15p14-17p15p14-17p15p14-17p15p14-16(17)--|
G|----------------------------------------------------------|
C|----------------------------------------------------------|

D|--------------------------------------------|
A|------------------------------------5/20~~--|
F|--------------------------------------------| 
C|--15p13p12-13p12p10-12p10p8-10p8p7----------|
G|--------------------------------------------|
C|--------------------------------------------|

D|------------------------------------------------------------------------|
A|-12-10---12-10----------------------------------------------------------|
F|------12-------12-12p10p9-10p9p7-9p7p5-10p9p7-12p10p9-10p9p7-1212121212-| 
C|------------------------------------------------------------------------|
G|------------------------------------------------------------------------|
C|------------------------------------------------------------------------|

D|--------------------------------------------|
A|-15p14p12-15p14p12-15p14p12-15p14p12-12~~---|
F|--------------------------------------------| 
C|--------------------------------------------|
G|--------------------------------------------|
C|--------------------------------------------|

D|-15-12----15-12----15-12----15-18(19)18(19)18(19)-|
A|-------15-------15-------15-----------------------|
F|--------------------------------------------------| 
C|--------------------------------------------------|
G|--------------------------------------------------|
C|--------------------------------------------------|

D|--19p18p16--19p18p16-19p18p16p-22(24)-22(24)-24(26)-24(26)--|
A|------------------------------------------------------------|
F|------------------------------------------------------------| 
C|------------------------------------------------------------|
G|------------------------------------------------------------|
C|------------------------------------------------------------|

Prechorus
Chorus
Intro

Mis emails:

Suerte y Practica!
Luck y Practice!

Yeah!





Comments


Popular Saliva tabs & chords
Weight Of The World Bass Tabs
Your Dispease Bass Tabs
Hunt You Down Intro Tabs
Ladies And Gentlemen 1 Tabs
Rock And Roll Revolution Tabs
Southern Girls Tabs
Starting Over Tabs
Superstar Tabs
Broken Sunday Ukulele
Turn The Lights On Ukulele


Song lyrics



↑ Back to top | Tablatures and chords are parodies/interpretations of the original songs. You may use it for private study, scholarship, research or language learning purposes only
© 2014 AZChords.com Contact us | Privacy policy | DMCA | Add/correct tabs | Request tabs | Top 50 tabs