» » »

Doperide Tabs (ver.1)

Artists:  A B C D E F G H I J K L M N O P Q R S T U V W X Y Z # 

Doperide Tabs (ver.1)

Saliva
Rating:
5/5 (3 votes)

Hard to play? Try these video lessons and learn fast.
                tuning: Drop C#


/ slide up
\ slide down
. palm mute
x mute(fret hand)
h hammer on
p pull off

It's crazy that there isn't a good version of this tab yet. Hopefully  
this one will change that.  Enjoy!

Intro (repeats)
D#|-------------------------|
A#|-------------------------|
F#|-------------------------|
C#|-------------------------|
G#|-------------------------|
C#|-0-x-x-3h5-0-x-/6-x-x-/6-|

Main Riff (repeats)
D#|------------------------|
A#|------------------------|
F#|------------------------|
C#|-0--x-3h5-0--x-/6--x-/6-|
G#|-0--x-3h5-0--x-/6--x-/6-|
C#|-0--x-3h5-0--x-/6--x-/6-|

Verse (repeats)
D#|----------------------------|
A#|----------------------------|
F#|----------------------------|
C#|-0-5--0-7--0-5--0-7---0-5-7-|
G#|-0-5--0-7--0-5--0-7---0-5-7-|
C#|-0-5--0-7--0-5--0-7---0-5-7-|
    . .  . .  . .  . .   . . .(light palm mute)

Chorus (repeats)                 Chorus Cont.
D#|------------------------|     D#|----------------------------|
A#|------------------------|     A#|----------------------------|
F#|------------------------|     F#|----------------------------|
C#|-0--x-3h5-0--x-/6--x-/6-|     C#|-3--3-3-3-3-3--2--2-2-2-2-2-|
G#|-0--x-3h5-0--x-/6--x-/6-|     G#|-3--3-3-3-3-3--2--2-2-2-2-2-|
C#|-0--x-3h5-0--x-/6--x-/6-|     C#|-3--3-3-3-3-3--2--2-2-2-2-2-|
(just this riff for 1st chorus)    (listen carefully for this part)
                                    "no apologies..."

D#|---------------------------|
A#|---------------------------|
F#|---------------------------|
C#|-0-5--0-7--0-5--0-7--0-5-7-|(repeats)
G#|-0-5--0-7--0-5--0-7--0-5-7-|
C#|-0-5--0-7--0-5--0-7--0-5-7-|
    . .  . .  . .  . .  . . .(light palm mute)

There!  That's all of the riffs.  Now you just need to listen and find 
out the exact order.

Please Rate.  Thanx!
            
Hard to play? Try these video lessons and learn fast. | Correct




comments powered by Disqus
↑ Back to top | Tablatures and chords are parodies/interpretations of the original songs. You may use it for private study, scholarship, research or language learning purposes only