» » »

Black Sheep Tabs (ver.2)

Artists:  A B C D E F G H I J K L M N O P Q R S T U V W X Y Z # 

Black Sheep Tabs (ver.2)

Saliva
Rating:
0/5 (0 votes)

Hard to play? Try these video lessons and learn fast.
                (Intro)
e---------------------------------------|
B---------------------------------------|
G---------------------------------------|
D--9-----2----2-2----4--4--4--2---------|
A--9-----2----2-2----4--4--4--2---------|
E--7-----0----0-0----2--2--2--0---------|

e---------------------------------------|
B---------------------------------------|
G---------------------------------------|
D--9-----2----2-2----4--4---------------|
A--9-----2----2-2----4--4---------------|
E--7-----0----0-0----2--2---------------|

e---------------------------------------|
B---------------------------------------|
G---------------------------------------|
D--9-----2----2-2----4--4--4--2---------|
A--9-----2----2-2----4--4--4--2---------|
E--7-----0----0-0----2--2--2--0---------|

e---------------------------------------|
B---------------------------------------|
G---------------------------------------|
D--3--3--3--X-2-------------------------|
A--3--3--3--X-2-------------------------|
E--1--1--1--X-0-------------------------|
            
Hard to play? Try these video lessons and learn fast. | Correct




comments powered by Disqus
↑ Back to top | Tablatures and chords are parodies/interpretations of the original songs. You may use it for private study, scholarship, research or language learning purposes only