» » »

Saliva, Beg Bass tabs (ver.2)

Artists:  A B C D E F G H I J K L M N O P Q R S T U V W X Y Z # 

Beg Bass tabs (ver.2)

Saliva Tabs
 Rating:
4/5 (4 votes)
Beg lessons Tabs too difficult? Try these video lessons and learn fast
                Saliva - Beg

bass tab


5-stringed bass
G D A E B

   INTRO/CORO
G-|-------------|---|----|
D-|-------------|---|----|
A-|-------------|---|----|
E-|-2222p111111-|---|----|
B-|-------------|---|-44-|
                  +                                                            

   VERSO
G-|-------------------|---------------------|
D-|-------------------|---------------------|
A-|-------------------|---------------------|
E-|-222-2-111---1---1-|-222-2-111---1-------|
B-|-----------4---4---|-----------4---4-4---|
                                                                              

   PRE-CORO
G-|-------------------|--------------------------|
D-|-------------------|--------------------------|
A-|-------------------|--------------------------|
E-|-------------------|--------------------------|
B-|-22-5-2-5-22-5-2-5-|-22-5-2-5-22-5-2-5-55-3-2-|
                                                                              
   
   BREAK 1
G-|---------------|
D-|---------------|
A-|---------------|
E-|-----------3---|
B-|-333-222-2---2-|
                                                                              

   BREAK 2
G-|----------|
D-|----------|
A-|----------|
E-|--------3-|
B-|-3333-2---|
                                                                              
Les mando congratulaciones ampliadas a todos los de QB promo 2004 TM que
son cuats oooooye, y me recuerdo pues las cosas estes que pasaban y algunas no
me recuerdo porque llegaba al curso con traje de la banda y asi pasaba clases
traumado de algo.

doky2007
            
Submit corrections

comments powered by Disqus
↑ Back to top | Saliva Bass for Beg. Lyrics for acoustic guitar and electric guitar. Tablatures and chords are parodies/interpretations of the original songs. You may use it for private study, scholarship, research or language learning purposes only