>
 >
The Lizard

The Lizard Guitar Tabs

Saigon Kick - The Lizard chords, tabs, tablatures, lyrics

Guitar lessons | Add/correct | Request | Top 50 tabs Artists:  A B C D E F G H I J K L M N O P Q R S T U V W X Y Z 0-9

The Lizard Guitar Tabs – Saigon Kick

CD, Sheet music, Poster

Do you like The Lizard? Share with your friends now
Bass TabsTabs
-----------------------------------------------------------------------------
                       
-----------------------------------------------------------------------------

Tuning: Dropped Db

=============================================================================

Guitar - rythm



              PM PM PM PM PM PM     PM PM  PM    PM PM PM PM PM PM             
              E  S  S  S  S  S  E.  E  E   E     E  S  S  S  S  S  H        S  
D#||-------|----------------------------------|-------------------------------|
A#||-------|--------------------3-------------|--------------------4----------|
F#||-------|--------------------2-------------|--------------------3----------|
C#||-------|----------------------------------|-------------------------------|
G#||-------|----------------------------------|-------------------------------|
C#||-------|--0--0--0--3b-0--0------0--3b--0--|--0--0--0--3b-0--0-------------|


  PM PM PM PM PM PM      PM PM  PM    PM PM PM PM PM PM             
  E  S  S  S  S  S  E  S E  E   E     E  S  S  S  S  S  H        S  
-----------------------------------|-------------------------------|
--------------------3--3-----------|--------------------4----------|
--------------------2--2-----------|--------------------3----------|
-----------------------------------|-------------------------------|
-----------------------------------|-------------------------------|
--0--0--0--3b-0--0-------0--3b--0--|--0--0--0--3b-0--0-------------|


  PM PM PM PM PM PM      PM PM  PM    PM PM PM PM PM PM             
  E  S  S  S  S  S  E  S E  E   E     E  S  S  S  S  S  H        S  
-----------------------------------|-------------------------------|
--------------------3--3-----------|--------------------4----------|
--------------------2--2-----------|--------------------3----------|
-----------------------------------|-------------------------------|
-----------------------------------|-------------------------------|
--0--0--0--3b-0--0-------0--3b--0--|--0--0--0--3b-0--0-------------|


  PM PM PM PM PM PM      PM PM  PM                               
  E  S  S  S  S  S  E  S E  E   E     E  S S S  S S H         S  
-----------------------------------|----------------------------|
--------------------3--3-----------|----------------4~----------|
--------------------2--2-----------|----------------3~----------|
-----------------------------------|----------------------------|
-----------------------------------|----------------------------|
--0--0--0--3b-0--0-------0--3b--0--|--0--0-0-3b-0-0-------------|


  PM PM PM PM PM PM      PM PM  PM    PM PM PM PM PM PM              
  E  S  S  S  S  S  E  S E  E   E     E  S  S  S  S  S  H         S  
-----------------------------------|--------------------------------|
--------------------3--3-----------|--------------------4~----------|
--------------------2--2-----------|--------------------3~----------|
-----------------------------------|--------------------------------|
-----------------------------------|--------------------------------|
--0--0--0--3b-0--0-------0--3b--0--|--0--0--0--3b-0--0--------------|


  PM PM PM PM PM PM      PM PM  PM    PM PM PM PM PM PM              
  E  S  S  S  S  S  E  S E  E   E     E  S  S  S  S  S  H         S  
-----------------------------------|--------------------------------|
--------------------3--3-----------|--------------------4~----------|
--------------------2--2-----------|--------------------3~----------|
-----------------------------------|--------------------------------|
-----------------------------------|--------------------------------|
--0--0--0--3b-0--0-------0--3b--0--|--0--0--0--3b-0--0--------------|


  PM PM PM PM PM PM      PM PM  PM    PM PM PM PM PM PM              
  E  S  S  S  S  S  E  S E  E   E     E  S  S  S  S  S  H         S  
-----------------------------------|--------------------------------|
--------------------3--3-----------|--------------------4~----------|
--------------------2--2-----------|--------------------3~----------|
-----------------------------------|--------------------------------|
-----------------------------------|--------------------------------|
--0--0--0--3b-0--0-------0--3b--0--|--0--0--0--3b-0--0--------------|


  PM PM PM PM PM PM      PM PM  PM    PM PM PM PM PM PM              
  E  S  S  S  S  S  E  S E  E   E     E  S  S  S  S  S  H         S  
-----------------------------------|--------------------------------|
--------------------3--3-----------|--------------------4~----------|
--------------------2--2-----------|--------------------3~----------|
-----------------------------------|--------------------------------|
-----------------------------------|--------------------------------|
--0--0--0--3b-0--0-------0--3b--0--|--0--0--0--3b-0--0--------------|


  PM PM PM PM PM PM      PM PM  PM    PM PM PM PM PM PM              
  E  S  S  S  S  S  E  S E  E   E     E  S  S  S  S  S  H         S  
-----------------------------------|--------------------------------|
--------------------3--3-----------|--------------------4~----------|
--------------------2--2-----------|--------------------3~----------|
-----------------------------------|--------------------------------|
-----------------------------------|--------------------------------|
--0--0--0--3b-0--0-------0--3b--0--|--0--0--0--3b-0--0--------------|


  PM PM PM PM PM PM      PM PM  PM    PM PM PM PM PM PM              
  E  S  S  S  S  S  E  S E  E   E     E  S  S  S  S  S  H         S  
-----------------------------------|--------------------------------|
--------------------3--3-----------|--------------------4~----------|
--------------------2--2-----------|--------------------3~----------|
-----------------------------------|--------------------------------|
-----------------------------------|--------------------------------|
--0--0--0--3b-0--0-------0--3b--0--|--0--0--0--3b-0--0--------------|


  PM PM PM PM PM PM      PM PM  PM    PM PM PM PM PM PM              
  E  S  S  S  S  S  E  S E  E   E     E  S  S  S  S  S  H         S  
-----------------------------------|--------------------------------|
--------------------3--3-----------|--------------------4~----------|
--------------------2--2-----------|--------------------3~----------|
-----------------------------------|--------------------------------|
-----------------------------------|--------------------------------|
--0--0--0--3b-0--0-------0--3b--0--|--0--0--0--3b-0--0--------------|


  PM PM PM PM PM PM      PM PM  PM    PM PM PM PM PM PM              
  E  S  S  S  S  S  E  S E  E   E     E  S  S  S  S  S  H         S  
-----------------------------------|--------------------------------|
--------------------3--3-----------|--------------------4~----------|
--------------------2--2-----------|--------------------3~----------|
-----------------------------------|--------------------------------|
-----------------------------------|--------------------------------|
--0--0--0--3b-0--0-------0--3b--0--|--0--0--0--3b-0--0--------------|


                                 SH           
  W                   H          H            
-------------------|-------------------------|
-------------------|-------------------------|
--5----------------|--4----------------------|
--5----------------|--5----------------------|
--3----------------|--2----------------------|
-------------------|-----------<>3brb--------|


  PM PM PM PM PM PM      PM PM  PM    PM PM PM PM PM PM              
  E  S  S  S  S  S  E  S E  E   E     E  S  S  S  S  S  H         S  
-----------------------------------|--------------------------------|
--------------------3--3-----------|--------------------4~----------|
--------------------2--2-----------|--------------------3~----------|
-----------------------------------|--------------------------------|
-----------------------------------|--------------------------------|
--0--0--0--3b-0--0-------0--3b--0--|--0--0--0--3b-0--0--------------|


                                 SH           
  W                   H          H            
-------------------|-------------------------|
-------------------|-------------------------|
--5----------------|--4----------------------|
--5----------------|--5----------------------|
--3----------------|--2----------------------|
-------------------|-----------<>3brb--------|


  PM PM PM PM PM PM      PM PM  PM    PM PM PM PM PM PM              
  E  S  S  S  S  S  E  S E  E   E     E  S  S  S  S  S  H         S  
-----------------------------------|--------------------------------|
--------------------3--3-----------|--------------------4~----------|
--------------------2--2-----------|--------------------3~----------|
-----------------------------------|--------------------------------|
-----------------------------------|--------------------------------|
--0--0--0--3b-0--0-------0--3b--0--|--0--0--0--3b-0--0--------------|


  PM PM PM PM PM PM      PM PM  PM    PM PM PM PM PM PM              
  E  S  S  S  S  S  E  S E  E   E     E  S  S  S  S  S  H         S  
-----------------------------------|--------------------------------|
--------------------3--3-----------|--------------------4~----------|
--------------------2--2-----------|--------------------3~----------|
-----------------------------------|--------------------------------|
-----------------------------------|--------------------------------|
--0--0--0--3b-0--0-------0--3b--0--|--0--0--0--3b-0--0--------------|


  PM PM PM PM PM PM      PM PM  PM    PM PM PM PM PM PM              
  E  S  S  S  S  S  E  S E  E   E     E  S  S  S  S  S  H         S  
-----------------------------------|--------------------------------|
--------------------3--3-----------|--------------------4~----------|
--------------------2--2-----------|--------------------3~----------|
-----------------------------------|--------------------------------|
-----------------------------------|--------------------------------|
--0--0--0--3b-0--0-------0--3b--0--|--0--0--0--3b-0--0--------------|


  PM PM PM PM PM PM      PM PM  PM    PM PM PM PM PM PM              
  E  S  S  S  S  S  E  S E  E   E     E  S  S  S  S  S  H         S  
-----------------------------------|--------------------------------|
--------------------3--3-----------|--------------------4~----------|
--------------------2--2-----------|--------------------3~----------|
-----------------------------------|--------------------------------|
-----------------------------------|--------------------------------|
--0--0--0--3b-0--0-------0--3b--0--|--0--0--0--3b-0--0--------------|


  PM PM PM PM PM PM      PM PM  PM    PM PM PM PM PM PM              
  E  S  S  S  S  S  E  S E  E   E     E  S  S  S  S  S  H         S  
-----------------------------------|--------------------------------|
--------------------3--3-----------|--------------------4~----------|
--------------------2--2-----------|--------------------3~----------|
-----------------------------------|--------------------------------|
-----------------------------------|--------------------------------|
--0--0--0--3b-0--0-------0--3b--0--|--0--0--0--3b-0--0--------------|


  PM PM PM PM PM PM      PM PM  PM    PM PM PM PM PM PM              
  E  S  S  S  S  S  E  S E  E   E     E  S  S  S  S  S  H         S  
-----------------------------------|--------------------------------|
--------------------3--3-----------|--------------------4~----------|
--------------------2--2-----------|--------------------3~----------|
-----------------------------------|--------------------------------|
-----------------------------------|--------------------------------|
--0--0--0--3b-0--0-------0--3b--0--|--0--0--0--3b-0--0--------------|


                                 SH           
  W                   H          H            
-------------------|-------------------------|
-------------------|-------------------------|
--5----------------|--4----------------------|
--5----------------|--5----------------------|
--3----------------|--2----------------------|
-------------------|-----------<>3brb--------|


  PM PM PM PM PM PM      PM PM  PM    PM PM PM PM PM PM              
  E  S  S  S  S  S  E  S E  E   E     E  S  S  S  S  S  H         S  
-----------------------------------|--------------------------------|
--------------------3--3-----------|--------------------4~----------|
--------------------2--2-----------|--------------------3~----------|
-----------------------------------|--------------------------------|
-----------------------------------|--------------------------------|
--0--0--0--3b-0--0-------0--3b--0--|--0--0--0--3b-0--0--------------|


                                 SH             PM PM PM PM PM PM PM PM  
  W                   H          H              E  E  E  E  E  E  E  E   
-------------------|-------------------------|--------------------------|
-------------------|-------------------------|--------------------------|
--5----------------|--4----------------------|--------------------------|
--5----------------|--5----------------------|--0--0--0--0--0--0--0--0--|
--3----------------|--2----------------------|--0--0--0--0--0--0--0--0--|
-------------------|-----------<>3brb--------|--0--0--0--0--0--0--0--0--|


  PM PM PM PM PM PM PM PM    PM PM PM PM PM PM PM PM  
  E  E  E  E  E  E  E  E     E  E  E  E  E  E  E  E   
--------------------------|--------------------------|
--------------------------|--------------------------|
--------------------------|--------------------------|
--2--2--2--2--2--2--2--2--|--5--5--5--5--5--5--5--5--|
--2--2--2--2--2--2--2--2--|--5--5--5--5--5--5--5--5--|
--2--2--2--2--2--2--2--2--|--5--5--5--5--5--5--5--5--|


  PM PM PM PM PM PM PM PM    PM PM PM PM PM PM PM PM  
  E  E  E  E  E  E  E  E     E  E  E  E  E  E  E  E   
--------------------------|--------------------------|
--------------------------|--------------------------|
--------------------------|--------------------------|
--0--0--0--0--0--0--0--0--|--0--0--0--0--0--0--0--0--|
--0--0--0--0--0--0--0--0--|--0--0--0--0--0--0--0--0--|
--0--0--0--0--0--0--0--0--|--0--0--0--0--0--0--0--0--|


  PM PM PM PM PM PM PM PM    PM PM PM PM PM PM PM PM  
  E  E  E  E  E  E  E  E     E  E  E  E  E  E  E  E   
--------------------------|--------------------------|
--------------------------|--------------------------|
--------------------------|--------------------------|
--2--2--2--2--2--2--2--2--|--5--5--5--5--5--5--5--5--|
--2--2--2--2--2--2--2--2--|--5--5--5--5--5--5--5--5--|
--2--2--2--2--2--2--2--2--|--5--5--5--5--5--5--5--5--|


  PM PM PM PM PM PM PM PM                             
  E  E  E  E  E  E  E  E     E  E  E  E  E  E  E  E   
--------------------------|--------------------------|
--------------------------|--------------------------|
--------------------------|--------------------------|
--0--0--0--0--0--0--0--0--|--------------------------|
--0--0--0--0--0--0--0--0--|--7--6--5--0--7--6--5--0--|
--0--0--0--0--0--0--0--0--|--7--6--5--0--7--6--5--0--|


  E  E  E  E  E  E  E  E     E  E  E  E  E  E  E  E   
--------------------------|--------------------------|
--------------------------|--------------------------|
--------------------------|--------------------------|
--------------------------|--------------------------|
--7--6--5--0--7--6--5--0--|--7--6--5--0--7--6--5--0--|
--7--6--5--0--7--6--5--0--|--7--6--5--0--7--6--5--0--|


                             PM PM PM PM PM PM PM PM  
  E  E  E  E  E  E  E  E     E  E  E  E  E  E  E  E   
--------------------------|--------------------------|
--------------------------|--------------------------|
--------------------------|--------------------------|
--------------------------|--0--0--0--0--0--0--0--0--|
--7--6--5--0--7--6--5--0--|--0--0--0--0--0--0--0--0--|
--7--6--5--0--7--6--5--0--|--0--0--0--0--0--0--0--0--|


  PM PM PM PM PM PM PM PM    PM PM PM PM PM PM PM PM  
  E  E  E  E  E  E  E  E     E  E  E  E  E  E  E  E   
--------------------------|--------------------------|
--------------------------|--------------------------|
--------------------------|--------------------------|
--2--2--2--2--2--2--2--2--|--3--3--3--3--3--3--3--3--|
--2--2--2--2--2--2--2--2--|--3--3--3--3--3--3--3--3--|
--2--2--2--2--2--2--2--2--|--3--3--3--3--3--3--3--3--|


  PM PM PM PM PM PM PM PM    PM PM PM PM PM PM PM PM  
  E  E  E  E  E  E  E  E     E  E  E  E  E  E  E  E   
--------------------------|--------------------------|
--------------------------|--------------------------|
--------------------------|--------------------------|
--5--5--5--5--5--5--5--5--|--0--0--0--0--0--0--0--0--|
--5--5--5--5--5--5--5--5--|--0--0--0--0--0--0--0--0--|
--5--5--5--5--5--5--5--5--|--0--0--0--0--0--0--0--0--|


  PM PM PM PM PM PM PM PM    PM PM PM PM PM PM PM PM  
  E  E  E  E  E  E  E  E     E  E  E  E  E  E  E  E   
--------------------------|--------------------------|
--------------------------|--------------------------|
--------------------------|--------------------------|
--2--2--2--2--2--2--2--2--|--3--3--3--3--3--3--3--3--|
--2--2--2--2--2--2--2--2--|--3--3--3--3--3--3--3--3--|
--2--2--2--2--2--2--2--2--|--3--3--3--3--3--3--3--3--|


  PM PM PM PM PM PM PM PM    PM PM PM PM PM PM PM PM  
  E  E  E  E  E  E  E  E     E  E  E  E  E  E  E  E   
--------------------------|--------------------------|
--------------------------|--------------------------|
--------------------------|--------------------------|
--5--5--5--5--5--5--5--5--|--0--0--0--0--0--0--0--0--|
--5--5--5--5--5--5--5--5--|--0--0--0--0--0--0--0--0--|
--5--5--5--5--5--5--5--5--|--0--0--0--0--0--0--0--0--|


  PM PM PM PM PM PM PM PM    PM PM PM PM PM PM PM PM  
  E  E  E  E  E  E  E  E     E  E  E  E  E  E  E  E   
--------------------------|--------------------------|
--------------------------|--------------------------|
--------------------------|--------------------------|
--2--2--2--2--2--2--2--2--|--3--3--3--3--3--3--3--3--|
--2--2--2--2--2--2--2--2--|--3--3--3--3--3--3--3--3--|
--2--2--2--2--2--2--2--2--|--3--3--3--3--3--3--3--3--|


  PM PM PM PM PM PM PM PM    PM PM PM PM PM PM PM PM  
  E  E  E  E  E  E  E  E     E  E  E  E  E  E  E  E   
--------------------------|--------------------------|
--------------------------|--------------------------|
--------------------------|--------------------------|
--5--5--5--5--5--5--5--5--|--0--0--0--0--0--0--0--0--|
--5--5--5--5--5--5--5--5--|--0--0--0--0--0--0--0--0--|
--5--5--5--5--5--5--5--5--|--0--0--0--0--0--0--0--0--|


  PM PM PM PM PM PM PM PM    PM PM PM PM PM PM PM PM  
  E  E  E  E  E  E  E  E     E  E  E  E  E  E  E  E   
--------------------------|--------------------------|
--------------------------|--------------------------|
--------------------------|--------------------------|
--2--2--2--2--2--2--2--2--|--3--3--3--3--3--3--3--3--|
--2--2--2--2--2--2--2--2--|--3--3--3--3--3--3--3--3--|
--2--2--2--2--2--2--2--2--|--3--3--3--3--3--3--3--3--|


  PM PM PM PM PM PM PM PM    PM PM PM PM PM PM      PM PM  PM  
  E  E  E  E  E  E  E  E     E  S  S  S  S  S  E  S E  E   E   
--------------------------|-----------------------------------|
--------------------------|--------------------3--3-----------|
--------------------------|--------------------2--2-----------|
--5--5--5--5--5--5--5--5--|-----------------------------------|
--5--5--5--5--5--5--5--5--|-----------------------------------|
--5--5--5--5--5--5--5--5--|--0--0--0--3b-0--0-------0--3b--0--|


  PM PM PM PM PM PM               PM PM PM PM PM PM      PM PM  PM  
  E  S  S  S  S  S  H        S    E  S  S  S  S  S  E  S E  E   E   
-------------------------------|-----------------------------------|
--------------------4----------|--------------------3--3-----------|
--------------------3----------|--------------------2--2-----------|
-------------------------------|-----------------------------------|
-------------------------------|-----------------------------------|
--0--0--0--3b-0--0-------------|--0--0--0--3b-0--0-------0--3b--0--|


                               PM PM PM PM PM PM      PM PM  PM  
  E  S S S  S S H         S    E  S  S  S  S  S  E  S E  E   E   
----------------------------|-----------------------------------|
----------------4~----------|--------------------3--3-----------|
----------------3~----------|--------------------2--2-----------|
----------------------------|-----------------------------------|
----------------------------|-----------------------------------|
--0--0-0-3b-0-0-------------|--0--0--0--3b-0--0-------0--3b--0--|


  PM PM PM PM PM PM               PM PM PM PM PM PM      PM PM  PM  
  E  S  S  S  S  S  H        S    E  S  S  S  S  S  E  S E  E   E   
-------------------------------|-----------------------------------|
--------------------4----------|--------------------3--3-----------|
--------------------3----------|--------------------2--2-----------|
-------------------------------|-----------------------------------|
-------------------------------|-----------------------------------|
--0--0--0--3b-0--0-------------|--0--0--0--3b-0--0-------0--3b--0--|


                               PM PM PM PM PM PM      PM PM  PM  
  E  S S S  S S H         S    E  S  S  S  S  S  E  S E  E   E   
----------------------------|-----------------------------------|
----------------4~----------|--------------------3--3-----------|
----------------3~----------|--------------------2--2-----------|
----------------------------|-----------------------------------|
----------------------------|-----------------------------------|
--0--0-0-3b-0-0-------------|--0--0--0--3b-0--0-------0--3b--0--|


  PM PM PM PM PM PM               PM PM PM PM PM PM      PM PM  PM  
  E  S  S  S  S  S  H        S    E  S  S  S  S  S  E  S E  E   E   
-------------------------------|-----------------------------------|
--------------------4----------|--------------------3--3-----------|
--------------------3----------|--------------------2--2-----------|
-------------------------------|-----------------------------------|
-------------------------------|-----------------------------------|
--0--0--0--3b-0--0-------------|--0--0--0--3b-0--0-------0--3b--0--|


                                                              SH           
  E  S S S  S S H         S    W                   H          H            
----------------------------|-------------------|-------------------------|
----------------4~----------|-------------------|-------------------------|
----------------3~----------|--5----------------|--4----------------------|
----------------------------|--5----------------|--5----------------------|
----------------------------|--3----------------|--2----------------------|
--0--0-0-3b-0-0-------------|-------------------|-----------<>3brb--------|


  PM PM PM PM PM PM      PM PM  PM    PM PM PM PM PM PM             
  E  S  S  S  S  S  E  S E  E   E     E  S  S  S  S  S  H        S  
-----------------------------------|-------------------------------|
--------------------3--3-----------|--------------------4----------|
--------------------2--2-----------|--------------------3----------|
-----------------------------------|-------------------------------|
-----------------------------------|-------------------------------|
--0--0--0--3b-0--0-------0--3b--0--|--0--0--0--3b-0--0-------------|


                                 SH             PM PM PM PM PM PM PM PM  
  W                   H          H              E  E  E  E  E  E  E  E   
-------------------|-------------------------|--------------------------|
-------------------|-------------------------|--------------------------|
--5----------------|--4----------------------|--------------------------|
--5----------------|--5----------------------|--0--0--0--0--0--0--0--0--|
--3----------------|--2----------------------|--0--0--0--0--0--0--0--0--|
-------------------|-----------<>3brb--------|--0--0--0--0--0--0--0--0--|


  PM PM PM PM PM PM PM PM    PM PM PM PM PM PM PM PM  
  E  E  E  E  E  E  E  E     E  E  E  E  E  E  E  E   
--------------------------|--------------------------|
--------------------------|--------------------------|
--------------------------|--------------------------|
--2--2--2--2--2--2--2--2--|--5--5--5--5--5--5--5--5--|
--2--2--2--2--2--2--2--2--|--5--5--5--5--5--5--5--5--|
--2--2--2--2--2--2--2--2--|--5--5--5--5--5--5--5--5--|


  PM PM PM PM PM PM PM PM    PM PM PM PM PM PM PM PM  
  E  E  E  E  E  E  E  E     E  E  E  E  E  E  E  E   
--------------------------|--------------------------|
--------------------------|--------------------------|
--------------------------|--------------------------|
--0--0--0--0--0--0--0--0--|--0--0--0--0--0--0--0--0--|
--0--0--0--0--0--0--0--0--|--0--0--0--0--0--0--0--0--|
--0--0--0--0--0--0--0--0--|--0--0--0--0--0--0--0--0--|


  PM PM PM PM PM PM PM PM    PM PM PM PM PM PM PM PM  
  E  E  E  E  E  E  E  E     E  E  E  E  E  E  E  E   
--------------------------|--------------------------|
--------------------------|--------------------------|
--------------------------|--------------------------|
--2--2--2--2--2--2--2--2--|--5--5--5--5--5--5--5--5--|
--2--2--2--2--2--2--2--2--|--5--5--5--5--5--5--5--5--|
--2--2--2--2--2--2--2--2--|--5--5--5--5--5--5--5--5--|


  PM PM PM PM PM PM PM PM    PM PM PM PM PM PM PM PM  
  E  E  E  E  E  E  E  E     E  E  E  E  E  E  E  E   
--------------------------|--------------------------|
--------------------------|--------------------------|
--------------------------|--------------------------|
--0--0--0--0--0--0--0--0--|--0--0--0--0--0--0--0--0--|
--0--0--0--0--0--0--0--0--|--0--0--0--0--0--0--0--0--|
--0--0--0--0--0--0--0--0--|--0--0--0--0--0--0--0--0--|


  PM PM PM PM PM PM PM PM    PM PM PM PM PM PM PM PM  
  E  E  E  E  E  E  E  E     E  E  E  E  E  E  E  E   
--------------------------|--------------------------|
--------------------------|--------------------------|
--------------------------|--------------------------|
--2--2--2--2--2--2--2--2--|--5--5--5--5--5--5--5--5--|
--2--2--2--2--2--2--2--2--|--5--5--5--5--5--5--5--5--|
--2--2--2--2--2--2--2--2--|--5--5--5--5--5--5--5--5--|


  PM PM PM PM PM PM PM PM    PM PM PM PM PM PM PM PM  
  E  E  E  E  E  E  E  E     E  E  E  E  E  E  E  E   
--------------------------|--------------------------|
--------------------------|--------------------------|
--------------------------|--------------------------|
--0--0--0--0--0--0--0--0--|--0--0--0--0--0--0--0--0--|
--0--0--0--0--0--0--0--0--|--0--0--0--0--0--0--0--0--|
--0--0--0--0--0--0--0--0--|--0--0--0--0--0--0--0--0--|


  PM PM PM PM PM PM PM PM    PM PM PM PM PM PM PM PM  
  E  E  E  E  E  E  E  E     E  E  E  E  E  E  E  E   
--------------------------|--------------------------|
--------------------------|--------------------------|
--------------------------|--------------------------|
--2--2--2--2--2--2--2--2--|--5--5--5--5--5--5--5--5--|
--2--2--2--2--2--2--2--2--|--5--5--5--5--5--5--5--5--|
--2--2--2--2--2--2--2--2--|--5--5--5--5--5--5--5--5--|


  PM PM PM PM PM PM PM PM                             
  E  E  E  E  E  E  E  E     E  E  E  E  E  E  E  E   
--------------------------|--------------------------|
--------------------------|--------------------------|
--------------------------|--------------------------|
--0--0--0--0--0--0--0--0--|--------------------------|
--0--0--0--0--0--0--0--0--|--7--6--5--0--7--6--5--0--|
--0--0--0--0--0--0--0--0--|--7--6--5--0--7--6--5--0--|


  E  E  E  E  E  E  E  E     E  E  E  E  E  E  E  E   
--------------------------|--------------------------|
--------------------------|--------------------------|
--------------------------|--------------------------|
--------------------------|--------------------------|
--7--6--5--0--7--6--5--0--|--7--6--5--0--7--6--5--0--|
--7--6--5--0--7--6--5--0--|--7--6--5--0--7--6--5--0--|


  E  E  E  E  E  E  E  E     E  E  E  E  E  E  E  E   
--------------------------|--------------------------|
--------------------------|--------------------------|
--------------------------|--------------------------|
--------------------------|--------------------------|
--7--6--5--0--7--6--5--0--|--7--6--5--0--7--6--5--0--|
--7--6--5--0--7--6--5--0--|--7--6--5--0--7--6--5--0--|


  E  E  E  E  E  E  E  E     E  E  E  E  E  E  E  E   
--------------------------|--------------------------|
--------------------------|--------------------------|
--------------------------|--------------------------|
--------------------------|--------------------------|
--7--6--5--0--7--6--5--0--|--7--6--5--0--7--6--5--0--|
--7--6--5--0--7--6--5--0--|--7--6--5--0--7--6--5--0--|


  E  E  E  E  E  E  E  E    
--------------------------||
--------------------------||
--------------------------||
--------------------------||
--7--6--5--0--7--6--5--0--||
--7--6--5--0--7--6--5--0--||



================================================================
================================================================
================================================================

                                  The Lizard                                    


                                                                     Saigon Kick
Guitar - solo






                                 SH                                           
  W                   H          H                                            
-------------------|-------------------------|-------|-------|-------|-------|
-------------------|-------------------------|-------|-------|-------|-------|
--5----------------|--4----------------------|-------|-------|-------|-------|
--5----------------|--5----------------------|-------|-------|-------|-------|
--3----------------|--2----------------------|-------|-------|-------|-------|
-------------------|-----------<>3brb--------|-------|-------|-------|-------|


                                                          H.           E  E   
-------|-------|-------|-------|-------|-------|-------|---------------------|
-------|-------|-------|-------|-------|-------|-------|---------------------|
-------|-------|-------|-------|-------|-------|-------|------------------7--|
-------|-------|-------|-------|-------|-------|-------|---------------------|
-------|-------|-------|-------|-------|-------|-------|---------------------|
-------|-------|-------|-------|-------|-------|-------|---------------------|


  H        Q    Q        H.           E  E     H        Q    Q     
----------------8b----|--8---------------6--|--6--------5----3----|
-----------6----------|---------------------|---------------------|
--7-------------------|---------------------|---------------------|
----------------------|---------------------|---------------------|
----------------------|---------------------|---------------------|
----------------------|---------------------|---------------------|


  H.            E   E     H        Q    Q        H.           E  E   
--5~-------------------|----------------8b----|--8---------------6--|
-----------------------|-----------6----------|---------------------|
-------------------/7--|--7-------------------|---------------------|
-----------------------|----------------------|---------------------|
-----------------------|----------------------|---------------------|
-----------------------|----------------------|---------------------|


  H        Q    Q       H.            E    E      H         Q     Q      
--6--------5----3----|--5~--------------------|-------------------------|
---------------------|------------------------|------------------13b----|
---------------------|------------------------|------------10-----------|
---------------------|-------------------/12--|--12---------------------|
---------------------|------------------------|-------------------------|
---------------------|------------------------|-------------------------|


   E   S  S  H.                E     E   S  S   S  S.  S  S.  S  S   S  S  S  
------------13b------------|--13br--13--10-----10-----10-----10-----10-------|
--13--13-10----------------|---------------13b----13b----13b----13b----13-10-|
---------------------------|-------------------------------------------------|
---------------------------|-------------------------------------------------|
---------------------------|-------------------------------------------------|
---------------------------|-------------------------------------------------|


   E   E   E   E   Q      Q     
-------------------------10----|
------10-----------------------|
--12------13--12--10~----------|
-------------------------------|
-------------------------------|
-------------------------------|


                                       |--3--|  |--3--|  
   S  S  S  S  S  S  S  S  S  S  S  S  S  S  S  S  S  S  
--13-10----10-13-10-------13-10-------13-10-------13----|
--------13----------13-10-------13-10-------13-10----10-|
--------------------------------------------------------|
--------------------------------------------------------|
--------------------------------------------------------|
--------------------------------------------------------|


   |--3--|  |--3--|  |--3--|  |--3--|  |-----5-----|  |-----5-----|  
   S  S  S  S  S  S  S  S  S  S  S  S  S  S  S  S  S  S  S  S  S  S  
--------15-10-------13-10-------15-10-------13-10-------15-10-------|
--13-10-------13-10-------13-10-------13-10-------13-10-------13-12-|
--------------------------------------------------------------------|
--------------------------------------------------------------------|
--------------------------------------------------------------------|
--------------------------------------------------------------------|


   7   7  7  7  7  7  7  7   7  7  7  7  7  7  7  7  7  7  7  7  7  7  7  7  7  
   S   S  S  S  S  S  S  S   S  S  S  S  S  S  S  S  S  S  S  S  S  S  S  S  S  
-------------------------------------------------------------17----------------1
---------------16-17-19-----------16-17-19-21-------17-18-20----20-18-17-18-20--
--14s-15-17-19----------15s-17-19-------------17-19-----------------------------
--------------------------------------------------------------------------------
--------------------------------------------------------------------------------
--------------------------------------------------------------------------------


   H            H             W                     W                  
--20brb--------20b--------|---Lb----------------|---Lb----------------|
---------------19b--------|---Lb----------------|---Lb----------------|
--------------------------|---------------------|---------------------|
--------------------------|---------------------|---------------------|
--------------------------|---------------------|---------------------|
--------------------------|---------------------|---------------------|


   \1/                         PM PM PM PM PM PM      PM PM  PM  
   W                           E  S  S  S  S  S  E  S E  E   E   
---L----------------|-------|-----------------------------------|
---L----------------|-------|--------------------3--3-----------|
--------------------|-------|--------------------2--2-----------|
--------------------|-------|-----------------------------------|
--------------------|-------|-----------------------------------|
--------------------|-------|--0--0--0--3b-0--0-------0--3b--0--|






Duration Legend
---------------
W - whole
H - half
Q - quarter
E - 8th
S - 16th
T - 32nd
X - 64th
. - note dotted
|-n-|  - n-tuplets


Tablature Legend
----------------
L - tied note
x - dead note
g - grace note
(n) - ghost note
> - accentuded note
NH - natural harmonic
AH - artificial harmonic
TH - tapped harmonic
SH - semi harmonic
PH - pitch harmonic
h - hammer on
p - pull off
b - bend
br - bendRelease
pb - preBend
pbr - preBendRelease
brb - bendReleaseBend
\n/ - tremolo bar dip
\n - tremolo bar dive
-/n - tremolo bar Release up
/n\ - tremolo bar inverted dip
/n - tremolo bar return
-\n - tremolo bar Release down
S - shift slide
s - legato slide
/ -  slide into from below or out of upwards
\ -  slide into from above or out of downwards
~ - vibrato
W - wide vibrato
tr - trill
TP - tremolo picking
T - tapping
S - slap
P - pop
< - fade in
^ - brush up
v - brush down





Comments


Popular Saigon Kick tabs & chords
I Love You Bass Tabs
What You Say Bass Tabs
All I Want Chords
Chanel Tabs
Chanel 1 Tabs
Come Take Me Now Tabs
Hostile Youth Tabs
Love Is On The Way 1 Tabs
My Life 1 Tabs
Fields Of Rape Ukulele


Song lyrics



↑ Back to top | Tablatures and chords are parodies/interpretations of the original songs. You may use it for private study, scholarship, research or language learning purposes only
© 2014 AZChords.com Contact us | Privacy policy | DMCA | Add/correct tabs | Request tabs | Top 50 tabs