>
 >
The Lizard

The Lizard Bass Tabs

Saigon Kick - The Lizard chords, tabs, tablatures, lyrics

Guitar lessons | Add/correct | Request | Top 50 tabs Artists:  A B C D E F G H I J K L M N O P Q R S T U V W X Y Z 0-9

The Lizard Bass Tabs – Saigon Kick

CD, Sheet music, Poster

Do you like The Lizard? Share with your friends now
Bass TabsTabs
-----------------------------------------------------------------------------
                       
-----------------------------------------------------------------------------

Tuning: Dropped Db

=============================================================================

Bass



                                              E  S S S  S S E.  E  E   E   
F#||-------|-------|-------|-------|-------|------------------------------|
C#||-------|-------|-------|-------|-------|------------------------------|
G#||-------|-------|-------|-------|-------|----------------5-------------|
C#||-------|-------|-------|-------|-------|--0--0-0-3b-0-0-----0--3b--0--|


  E  S S S  S S H         S    E  S S S  S S E.  E  E   E   
----------------------------|------------------------------|
----------------------------|------------------------------|
----------------6~----------|----------------5-------------|
--0--0-0-3b-0-0-------------|--0--0-0-3b-0-0-----0--3b--0--|


  E  S S S  S S H         S    E  S S S  S S E.  E  E   E   
----------------------------|------------------------------|
----------------------------|------------------------------|
----------------6~----------|----------------5-------------|
--0--0-0-3b-0-0-------------|--0--0-0-3b-0-0-----0--3b--0--|


  E  S S S  S S H         S    E  S S S  S S E.  E  E   E   
----------------------------|------------------------------|
----------------------------|------------------------------|
----------------6~----------|----------------5-------------|
--0--0-0-3b-0-0-------------|--0--0-0-3b-0-0-----0--3b--0--|


  E  S S S  S S H         S    E  S S S  S S E.  E  E   E   
----------------------------|------------------------------|
----------------------------|------------------------------|
----------------6~----------|----------------5-------------|
--0--0-0-3b-0-0-------------|--0--0-0-3b-0-0-----0--3b--0--|


  E  S S S  S S H         S    E  S S S  S S E.  E  E   E   
----------------------------|------------------------------|
----------------------------|------------------------------|
----------------6~----------|----------------5-------------|
--0--0-0-3b-0-0-------------|--0--0-0-3b-0-0-----0--3b--0--|


  E  S S S  S S H         S    E  S S S  S S E.  E  E   E   
----------------------------|------------------------------|
----------------------------|------------------------------|
----------------6~----------|----------------5-------------|
--0--0-0-3b-0-0-------------|--0--0-0-3b-0-0-----0--3b--0--|


  E  S S S  S S H         S    E  S S S  S S E.  E  E   E   
----------------------------|------------------------------|
----------------------------|------------------------------|
----------------6~----------|----------------5-------------|
--0--0-0-3b-0-0-------------|--0--0-0-3b-0-0-----0--3b--0--|


  E  S S S  S S H         S    E  S S S  S S E.  E  E   E   
----------------------------|------------------------------|
----------------------------|------------------------------|
----------------6~----------|----------------5-------------|
--0--0-0-3b-0-0-------------|--0--0-0-3b-0-0-----0--3b--0--|


  E  S S S  S S H         S    E  S S S  S S E.  E  E   E   
----------------------------|------------------------------|
----------------------------|------------------------------|
----------------6~----------|----------------5-------------|
--0--0-0-3b-0-0-------------|--0--0-0-3b-0-0-----0--3b--0--|


  E  S S S  S S H         S    H.           E.  S    H        H          
----------------------------|---------------------|---------------------|
----------------------------|---------------------|---------------------|
----------------6~----------|--3------------L-----|--2------------------|
--0--0-0-3b-0-0-------------|---------------------|-----------3~--------|


  E  S S S  S S E.  E  E   E     E  S S S  S S H        S  
------------------------------|---------------------------|
------------------------------|---------------------------|
----------------5-------------|----------------6----------|
--0--0-0-3b-0-0-----0--3b--0--|--0--0-0-3b-0-0------------|


  H.           E.  S    H        H            E  S S S  S S E.  E  E   E   
---------------------|---------------------|------------------------------|
---------------------|---------------------|------------------------------|
--3------------L-----|--2------------------|----------------5-------------|
---------------------|-----------3~--------|--0--0-0-3b-0-0-----0--3b--0--|


  E  S S S  S S H        S    E  S S S  S S E.  E  E   E   
---------------------------|------------------------------|
---------------------------|------------------------------|
----------------6----------|----------------5-------------|
--0--0-0-3b-0-0------------|--0--0-0-3b-0-0-----0--3b--0--|


  E  S S S  S S H        S    E  S S S  S S E.  E  E   E   
---------------------------|------------------------------|
---------------------------|------------------------------|
----------------6----------|----------------5-------------|
--0--0-0-3b-0-0------------|--0--0-0-3b-0-0-----0--3b--0--|


  E  S S S  S S H        S    E  S S S  S S E.  E  E   E   
---------------------------|------------------------------|
---------------------------|------------------------------|
----------------6----------|----------------5-------------|
--0--0-0-3b-0-0------------|--0--0-0-3b-0-0-----0--3b--0--|


  E  S S S  S S H        S    E  S S S  S S E.  E  E   E   
---------------------------|------------------------------|
---------------------------|------------------------------|
----------------6----------|----------------5-------------|
--0--0-0-3b-0-0------------|--0--0-0-3b-0-0-----0--3b--0--|


  E  S S S  S S H        S    E  S S S  S S E.  E  E   E   
---------------------------|------------------------------|
---------------------------|------------------------------|
----------------6----------|----------------5-------------|
--0--0-0-3b-0-0------------|--0--0-0-3b-0-0-----0--3b--0--|


  E  S S S  S S H        S    H.           E.  S    H        H          
---------------------------|---------------------|---------------------|
---------------------------|---------------------|---------------------|
----------------6----------|--3------------L-----|--2------------------|
--0--0-0-3b-0-0------------|---------------------|-----------3~--------|


  E  S S S  S S E.  E  E   E     E  S S S  S S H        S  
------------------------------|---------------------------|
------------------------------|---------------------------|
----------------5-------------|----------------6----------|
--0--0-0-3b-0-0-----0--3b--0--|--0--0-0-3b-0-0------------|


  H.           E.  S    H        H            E  E  E  E  E  E  E  E   
---------------------|---------------------|--------------------------|
---------------------|---------------------|--------------------------|
--3------------L-----|--2------------------|--------------------------|
---------------------|-----------3~--------|--0--0--0--0--0--0--0--0--|


  E  E  E  E  E  E  E  E     E  E  E  E  E  E  E  E   
--------------------------|--------------------------|
--------------------------|--------------------------|
--------------------------|--------------------------|
--2--2--2--2--2--2--2--2--|--5--5--5--5--5--5--5--5--|


  E  E  E  E  E  E  E  E     E  E  E  E  E  E  E  E   
--------------------------|--------------------------|
--------------------------|--------------------------|
--------------------------|--------------------------|
--0--0--0--0--0--0--0--0--|--0--0--0--0--0--0--0--0--|


  E  E  E  E  E  E  E  E     E  E  E  E  E  E  E  E   
--------------------------|--------------------------|
--------------------------|--------------------------|
--------------------------|--------------------------|
--2--2--2--2--2--2--2--2--|--5--5--5--5--5--5--5--5--|


  E  E  E  E  E  E  E  E     E  E  E  E  E  E  E  E   
--------------------------|--------------------------|
--------------------------|--------------------------|
--------------------------|--------------------------|
--0--0--0--0--0--0--0--0--|--7--6--5--0--7--6--5--0--|


  E  E  E  E  E  E  E  E     E  E  E  E  E  E  E  E   
--------------------------|--------------------------|
--------------------------|--------------------------|
--------------------------|--------------------------|
--7--6--5--0--7--6--5--0--|--7--6--5--0--7--6--5--0--|


  E  E  E  E  E  E  E  E     E  E  E  E  E  E  E  E   
--------------------------|--------------------------|
--------------------------|--------------------------|
--------------------------|--------------------------|
--7--6--5--0--7--6--5--0--|--0--0--0--0--0--0--0--0--|


  E  E  E  E  E  E  E  E     E  E  E  E  E  E  E  E   
--------------------------|--------------------------|
--------------------------|--------------------------|
--------------------------|--------------------------|
--2--2--2--2--2--2--2--2--|--3--3--3--3--3--3--3--3--|


  E  E  E  E  E  E  E  E     E  E  E  E  E  E  E  E   
--------------------------|--------------------------|
--------------------------|--------------------------|
--------------------------|--------------------------|
--5--5--5--5--5--5--5--5--|--0--0--0--0--0--0--0--0--|


  E  E  E  E  E  E  E  E     E  E  E  E  E  E  E  E   
--------------------------|--------------------------|
--------------------------|--------------------------|
--------------------------|--------------------------|
--2--2--2--2--2--2--2--2--|--3--3--3--3--3--3--3--3--|


  E  E  E  E  E  E  E  E     E  E  E  E  E  E  E  E   
--------------------------|--------------------------|
--------------------------|--------------------------|
--------------------------|--------------------------|
--5--5--5--5--5--5--5--5--|--0--0--0--0--0--0--0--0--|


  E  E  E  E  E  E  E  E     E  E  E  E  E  E  E  E   
--------------------------|--------------------------|
--------------------------|--------------------------|
--------------------------|--------------------------|
--2--2--2--2--2--2--2--2--|--3--3--3--3--3--3--3--3--|


  E  E  E  E  E  E  E  E     E  E  E  E  E  E  E  E   
--------------------------|--------------------------|
--------------------------|--------------------------|
--------------------------|--------------------------|
--5--5--5--5--5--5--5--5--|--0--0--0--0--0--0--0--0--|


  E  E  E  E  E  E  E  E     E  E  E  E  E  E  E  E   
--------------------------|--------------------------|
--------------------------|--------------------------|
--------------------------|--------------------------|
--2--2--2--2--2--2--2--2--|--3--3--3--3--3--3--3--3--|


  E  E  E  E  E  E  E  E     E  S S S  S S E.  E  E   E   
--------------------------|------------------------------|
--------------------------|------------------------------|
--------------------------|----------------5-------------|
--5--5--5--5--5--5--5--5--|--0--0-0-3b-0-0-----0--3b--0--|


  E  S S S  S S H        S    E  S S S  S S E.  E  E   E   
---------------------------|------------------------------|
---------------------------|------------------------------|
----------------6----------|----------------5-------------|
--0--0-0-3b-0-0------------|--0--0-0-3b-0-0-----0--3b--0--|


  E  S S S  S S H        S    E  S S S  S S E.  E  E   E   
---------------------------|------------------------------|
---------------------------|------------------------------|
----------------6----------|----------------5-------------|
--0--0-0-3b-0-0------------|--0--0-0-3b-0-0-----0--3b--0--|


  E  S S S  S S H        S    E  S S S  S S E.  E  E   E   
---------------------------|------------------------------|
---------------------------|------------------------------|
----------------6----------|----------------5-------------|
--0--0-0-3b-0-0------------|--0--0-0-3b-0-0-----0--3b--0--|


  E  S S S  S S H        S    E  S S S  S S E.  E  E   E   
---------------------------|------------------------------|
---------------------------|------------------------------|
----------------6----------|----------------5-------------|
--0--0-0-3b-0-0------------|--0--0-0-3b-0-0-----0--3b--0--|


  E  S S S  S S H        S    E  S S S  S S E.  E  E   E   
---------------------------|------------------------------|
---------------------------|------------------------------|
----------------6----------|----------------5-------------|
--0--0-0-3b-0-0------------|--0--0-0-3b-0-0-----0--3b--0--|


  E  S S S  S S H        S    H.           E.  S    H        H          
---------------------------|---------------------|---------------------|
---------------------------|---------------------|---------------------|
----------------6----------|--3------------L-----|--2------------------|
--0--0-0-3b-0-0------------|---------------------|-----------3~--------|


  E  S S S  S S E.  E  E   E     E  S S S  S S H        S  
------------------------------|---------------------------|
------------------------------|---------------------------|
----------------5-------------|----------------6----------|
--0--0-0-3b-0-0-----0--3b--0--|--0--0-0-3b-0-0------------|


  H.           E.  S    H        H            E  E  E  E  E  E  E  E   
---------------------|---------------------|--------------------------|
---------------------|---------------------|--------------------------|
--3------------L-----|--2------------------|--------------------------|
---------------------|-----------3~--------|--0--0--0--0--0--0--0--0--|


  E  E  E  E  E  E  E  E     E  E  E  E  E  E  E  E   
--------------------------|--------------------------|
--------------------------|--------------------------|
--------------------------|--------------------------|
--2--2--2--2--2--2--2--2--|--5--5--5--5--5--5--5--5--|


  E  E  E  E  E  E  E  E     E  E  E  E  E  E  E  E   
--------------------------|--------------------------|
--------------------------|--------------------------|
--------------------------|--------------------------|
--0--0--0--0--0--0--0--0--|--0--0--0--0--0--0--0--0--|


  E  E  E  E  E  E  E  E     E  E  E  E  E  E  E  E   
--------------------------|--------------------------|
--------------------------|--------------------------|
--------------------------|--------------------------|
--2--2--2--2--2--2--2--2--|--5--5--5--5--5--5--5--5--|


  E  E  E  E  E  E  E  E     E  E  E  E  E  E  E  E   
--------------------------|--------------------------|
--------------------------|--------------------------|
--------------------------|--------------------------|
--0--0--0--0--0--0--0--0--|--0--0--0--0--0--0--0--0--|


  E  E  E  E  E  E  E  E     E  E  E  E  E  E  E  E   
--------------------------|--------------------------|
--------------------------|--------------------------|
--------------------------|--------------------------|
--2--2--2--2--2--2--2--2--|--5--5--5--5--5--5--5--5--|


  E  E  E  E  E  E  E  E     E  E  E  E  E  E  E  E   
--------------------------|--------------------------|
--------------------------|--------------------------|
--------------------------|--------------------------|
--0--0--0--0--0--0--0--0--|--0--0--0--0--0--0--0--0--|


  E  E  E  E  E  E  E  E     E  E  E  E  E  E  E  E   
--------------------------|--------------------------|
--------------------------|--------------------------|
--------------------------|--------------------------|
--2--2--2--2--2--2--2--2--|--5--5--5--5--5--5--5--5--|


  E  E  E  E  E  E  E  E     E  E  E  E  E  E  E  E   
--------------------------|--------------------------|
--------------------------|--------------------------|
--------------------------|--------------------------|
--0--0--0--0--0--0--0--0--|--7--6--5--0--7--6--5--0--|


  E  E  E  E  E  E  E  E     E  E  E  E  E  E  E  E   
--------------------------|--------------------------|
--------------------------|--------------------------|
--------------------------|--------------------------|
--7--6--5--0--7--6--5--0--|--7--6--5--0--7--6--5--0--|


  E  E  E  E  E  E  E  E     E  E  E  E  E  E  E  E   
--------------------------|--------------------------|
--------------------------|--------------------------|
--------------------------|--------------------------|
--7--6--5--0--7--6--5--0--|--7--6--5--0--7--6--5--0--|


  E  E  E  E  E  E  E  E     E  E  E  E  E  E  E  E   
--------------------------|--------------------------|
--------------------------|--------------------------|
--------------------------|--------------------------|
--7--6--5--0--7--6--5--0--|--7--6--5--0--7--6--5--0--|


  E  E  E  E  E  E  E  E    
--------------------------||
--------------------------||
--------------------------||
--7--6--5--0--7--6--5--0--||




Duration Legend
---------------
W - whole
H - half
Q - quarter
E - 8th
S - 16th
T - 32nd
X - 64th
. - note dotted
|-n-|  - n-tuplets


Tablature Legend
----------------
L - tied note
x - dead note
g - grace note
(n) - ghost note
> - accentuded note
NH - natural harmonic
AH - artificial harmonic
TH - tapped harmonic
SH - semi harmonic
PH - pitch harmonic
h - hammer on
p - pull off
b - bend
br - bendRelease
pb - preBend
pbr - preBendRelease
brb - bendReleaseBend
\n/ - tremolo bar dip
\n - tremolo bar dive
-/n - tremolo bar Release up
/n\ - tremolo bar inverted dip
/n - tremolo bar return
-\n - tremolo bar Release down
S - shift slide
s - legato slide
/ -  slide into from below or out of upwards
\ -  slide into from above or out of downwards
~ - vibrato
W - wide vibrato
tr - trill
TP - tremolo picking
T - tapping
S - slap
P - pop
< - fade in
^ - brush up
v - brush down





Comments


Popular Saigon Kick tabs & chords
God Of 42nd Street Bass Tabs
Love Is On The Way Bass Tabs
Suzy Bass Tabs
Fields Of Rape Chords
Sergeant Steve Chords
Hostile Youth Intro Tabs
Love Is On The Way 1 Tabs
The Lizard Tabs
What Do You Do Tabs
Fields Of Rape Ukulele


Song lyrics



↑ Back to top | Tablatures and chords are parodies/interpretations of the original songs. You may use it for private study, scholarship, research or language learning purposes only
© 2014 AZChords.com Contact us | Privacy policy | DMCA | Add/correct tabs | Request tabs | Top 50 tabs