>
 >
Colors

Colors Guitar Tabs

Saigon Kick - Colors chords, tabs, tablatures, lyrics

Guitar lessons | Add/correct | Request | Top 50 tabs Artists:  A B C D E F G H I J K L M N O P Q R S T U V W X Y Z 0-9

Colors Guitar Tabs – Saigon Kick

CD, Sheet music, Poster

Do you like Colors? Share with your friends now
Bass TabsTabs
-----------------------------------------------------------------------------
                       
-----------------------------------------------------------------------------

Tuning: Standard

=============================================================================

                                  

Guitar - acoustic



                         v      v              ^      v            
     W                   Q.     H        E     Q.     H        E   
E||-------------------|---------------------|---------------------|
B||-------------------|--3------3--------L--|--3------3--------L--|
G||-------------------|--4------0--------L--|--4------0--------L--|
D||-------------------|--4------0--------L--|--4------0--------L--|
A||-------------------|--2------2--------L--|--2------2--------L--|
E||-------------------|---------3--------L--|---------3--------L--|


  ^      v              ^      v              ^      v            
  Q.     H        E     Q.     H        E     Q.     H        E   
---------------------|---------------------|---------------------|
--3------3--------L--|--3------3--------L--|--3------3--------L--|
--4------0--------L--|--4------0--------L--|--4------0--------L--|
--4------0--------L--|--4------0--------L--|--4------0--------L--|
--2------2--------L--|--2------2--------L--|--2------2--------L--|
---------3--------L--|---------3--------L--|---------3--------L--|


  ^      v              ^      v              ^      v            
  Q.     H        E     Q.     H        E     Q.     H        E   
---------------------|---------------------|---------------------|
--3------3--------L--|--3------3--------L--|--3------3--------L--|
--4------0--------L--|--4------0--------L--|--4------0--------L--|
--4------0--------L--|--4------0--------L--|--4------0--------L--|
--2------2--------L--|--2------2--------L--|--2------2--------L--|
---------3--------L--|---------3--------L--|---------3--------L--|


  ^      v              ^      v              ^      v            
  Q.     H        E     Q.     H        E     Q.     H        E   
---------------------|---------------------|---------------------|
--3------3--------L--|--3------3--------L--|--3------3--------L--|
--4------0--------L--|--4------0--------L--|--4------0--------L--|
--4------0--------L--|--4------0--------L--|--4------0--------L--|
--2------2--------L--|--2------2--------L--|--2------2--------L--|
---------3--------L--|---------3--------L--|---------3--------L--|


  ^      v              ^      v              ^      v            
  Q.     H        E     Q.     H        E     Q.     H        E   
---------------------|---------------------|---------------------|
--3------3--------L--|--3------3--------L--|--3------3--------L--|
--4------0--------L--|--4------0--------L--|--4------0--------L--|
--4------0--------L--|--4------0--------L--|--4------0--------L--|
--2------2--------L--|--2------2--------L--|--2------2--------L--|
---------3--------L--|---------3--------L--|---------3--------L--|


  ^      v              ^      v              ^      v            
  Q.     H        E     Q.     H        E     Q.     H        E   
---------------------|---------------------|---------------------|
--3------3--------L--|--3------3--------L--|--3------3--------L--|
--4------0--------L--|--4------0--------L--|--4------0--------L--|
--4------0--------L--|--4------0--------L--|--4------0--------L--|
--2------2--------L--|--2------2--------L--|--2------2--------L--|
---------3--------L--|---------3--------L--|---------3--------L--|


  ^      v              ^      v              ^      v            
  Q.     H        E     Q.     H        E     Q.     H        E   
---------------------|---------------------|---------------------|
--3------3--------L--|--3------3--------L--|--3------3--------L--|
--4------0--------L--|--4------0--------L--|--4------0--------L--|
--4------0--------L--|--4------0--------L--|--4------0--------L--|
--2------2--------L--|--2------2--------L--|--2------2--------L--|
---------3--------L--|---------3--------L--|---------3--------L--|


  Q.     Q.     Q       Q.     Q.     Q       Q.     Q.     Q     
---------------------|--2------------------|---------------------|
--3------3------3----|--3------2------2----|--3------3------3----|
--4------0------0----|--2------2------2----|--4------0------0----|
--4------0------0----|--0------2------2----|--4------0------0----|
--2------2------2----|---------0------0----|--2------2------2----|
---------3------3----|---------------------|---------3------3----|


  Q.     Q.     Q       Q.     Q.     Q       Q.     Q.     Q     
--2------------------|---------------------|--2------------------|
--3------2------2----|--3------3------3----|--3------2------2----|
--2------2------2----|--4------0------0----|--2------2------2----|
--0------2------2----|--4------0------0----|--0------2------2----|
---------0------0----|--2------2------2----|---------0------0----|
---------------------|---------3------3----|---------------------|


                                                           ^      v            
  Q.     Q.     Q       Q.     Q.     Q       Q    Q       Q.     H        E   
---------------------|--2------------------|------------|---------------------|
--3------3------3----|--3------2------L----|--L---------|--3------3--------L--|
--4------0------0----|--2------2------L----|--L---------|--4------0--------L--|
--4------0------0----|--0------2------L----|--L---------|--4------0--------L--|
--2------2------2----|---------0------L----|--L---------|--2------2--------L--|
---------3------3----|---------------------|------------|---------3--------L--|


  ^      v              ^      v              ^      v            
  Q.     H        E     Q.     H        E     Q.     H        E   
---------------------|---------------------|---------------------|
--3------3--------L--|--3------3--------L--|--3------3--------L--|
--4------0--------L--|--4------0--------L--|--4------0--------L--|
--4------0--------L--|--4------0--------L--|--4------0--------L--|
--2------2--------L--|--2------2--------L--|--2------2--------L--|
---------3--------L--|---------3--------L--|---------3--------L--|


  ^      v              ^      v              ^      v            
  Q.     H        E     Q.     H        E     Q.     H        E   
---------------------|---------------------|---------------------|
--3------3--------L--|--3------3--------L--|--3------3--------L--|
--4------0--------L--|--4------0--------L--|--4------0--------L--|
--4------0--------L--|--4------0--------L--|--4------0--------L--|
--2------2--------L--|--2------2--------L--|--2------2--------L--|
---------3--------L--|---------3--------L--|---------3--------L--|


  ^      v              ^      v              ^      v            
  Q.     H        E     Q.     H        E     Q.     H        E   
---------------------|---------------------|---------------------|
--3------3--------L--|--3------3--------L--|--3------3--------L--|
--4------0--------L--|--4------0--------L--|--4------0--------L--|
--4------0--------L--|--4------0--------L--|--4------0--------L--|
--2------2--------L--|--2------2--------L--|--2------2--------L--|
---------3--------L--|---------3--------L--|---------3--------L--|


  ^      v              ^      v              ^      v            
  Q.     H        E     Q.     H        E     Q.     H        E   
---------------------|---------------------|---------------------|
--3------3--------L--|--3------3--------L--|--3------3--------L--|
--4------0--------L--|--4------0--------L--|--4------0--------L--|
--4------0--------L--|--4------0--------L--|--4------0--------L--|
--2------2--------L--|--2------2--------L--|--2------2--------L--|
---------3--------L--|---------3--------L--|---------3--------L--|


  ^      v              ^      v              ^      v            
  Q.     H        E     Q.     H        E     Q.     H        E   
---------------------|---------------------|---------------------|
--3------3--------L--|--3------3--------L--|--3------3--------L--|
--4------0--------L--|--4------0--------L--|--4------0--------L--|
--4------0--------L--|--4------0--------L--|--4------0--------L--|
--2------2--------L--|--2------2--------L--|--2------2--------L--|
---------3--------L--|---------3--------L--|---------3--------L--|


  ^      v              ^      v              ^      v            
  Q.     H        E     Q.     H        E     Q.     H        E   
---------------------|---------------------|---------------------|
--3------3--------L--|--3------3--------L--|--3------3--------L--|
--4------0--------L--|--4------0--------L--|--4------0--------L--|
--4------0--------L--|--4------0--------L--|--4------0--------L--|
--2------2--------L--|--2------2--------L--|--2------2--------L--|
---------3--------L--|---------3--------L--|---------3--------L--|


  ^      v                                                        
  Q.     H        E     Q.     Q.     Q       Q.     Q.     Q     
---------------------|---------------------|--2------------------|
--3------3--------L--|--3------3------3----|--3------2------2----|
--4------0--------L--|--4------0------0----|--2------2------2----|
--4------0--------L--|--4------0------0----|--0------2------2----|
--2------2--------L--|--2------2------2----|---------0------0----|
---------3--------L--|---------3------3----|---------------------|


  Q.     Q.     Q       Q.     Q.     Q       Q.     Q.     Q     
---------------------|--2------------------|---------------------|
--3------3------3----|--3------2------2----|--3------3------3----|
--4------0------0----|--2------2------2----|--4------0------0----|
--4------0------0----|--0------2------2----|--4------0------0----|
--2------2------2----|---------0------0----|--2------2------2----|
---------3------3----|---------------------|---------3------3----|


  Q.     Q.     Q       Q.     Q.     Q       Q.     Q.     Q       Q    Q     
--2------------------|---------------------|--2------------------|------------|
--3------2------2----|--3------3------3----|--3------2------2----|--L---------|
--2------2------2----|--4------0------0----|--2------2------2----|--L---------|
--0------2------2----|--4------0------0----|--0------2------2----|--L---------|
---------0------0----|--2------2------2----|---------0------0----|--L---------|
---------------------|---------3------3----|---------------------|------------|


  ^      v              ^      v              ^      v            
  Q.     H        E     Q.     H        E     Q.     H        E   
---------------------|---------------------|---------------------|
--3------3--------L--|--3------3--------L--|--3------3--------L--|
--4------0--------L--|--4------0--------L--|--4------0--------L--|
--4------0--------L--|--4------0--------L--|--4------0--------L--|
--2------2--------L--|--2------2--------L--|--2------2--------L--|
---------3--------L--|---------3--------L--|---------3--------L--|


  ^      v              ^      v              ^      v            
  Q.     H        E     Q.     H        E     Q.     H        E   
---------------------|---------------------|---------------------|
--3------3--------L--|--3------3--------L--|--3------3--------L--|
--4------0--------L--|--4------0--------L--|--4------0--------L--|
--4------0--------L--|--4------0--------L--|--4------0--------L--|
--2------2--------L--|--2------2--------L--|--2------2--------L--|
---------3--------L--|---------3--------L--|---------3--------L--|


  ^      v              ^      v              v            ^      v            
  Q.     H        E     Q.     H        E     Q    Q       Q.     H        E   
---------------------|---------------------|------------|---------------------|
--3------3--------L--|--3------3--------L--|--L---------|--3------3--------L--|
--4------0--------L--|--4------0--------L--|--L---------|--4------0--------L--|
--4------0--------L--|--4------0--------L--|--L---------|--4------0--------L--|
--2------2--------L--|--2------2--------L--|--L---------|--2------2--------L--|
---------3--------L--|---------3--------L--|--L---------|---------3--------L--|


  ^      v              ^      v              ^      v            
  Q.     H        E     Q.     H        E     Q.     H        E   
---------------------|---------------------|---------------------|
--3------3--------L--|--3------3--------L--|--3------3--------L--|
--4------0--------L--|--4------0--------L--|--4------0--------L--|
--4------0--------L--|--4------0--------L--|--4------0--------L--|
--2------2--------L--|--2------2--------L--|--2------2--------L--|
---------3--------L--|---------3--------L--|---------3--------L--|


  Q.     H        E     Q.     H        E     Q.     H        E   
---------------------|--2------------------|---------------------|
--3------3--------L--|--3------2--------L--|--3------3--------L--|
--4------0--------L--|--2------2--------L--|--4------0--------L--|
--4------0--------L--|--0------2--------L--|--4------0--------L--|
--2------2--------L--|---------0--------L--|--2------2--------L--|
---------3--------L--|---------------------|---------3--------L--|


  Q.     H        E     Q.     H        E     Q.     H        E   
--2------------------|---------------------|--2------------------|
--3------2--------L--|--3------3--------L--|--3------2--------L--|
--2------2--------L--|--4------0--------L--|--2------2--------L--|
--0------2--------L--|--4------0--------L--|--0------2--------L--|
---------0--------L--|--2------2--------L--|---------0--------L--|
---------------------|---------3--------L--|---------------------|


  Q.     H        E     Q.     H        E     Q.     H        E   
---------------------|--2------------------|---------------------|
--3------3--------L--|--3------2--------L--|--5------5--------L--|
--4------0--------L--|--2------2--------L--|--6------6--------L--|
--4------0--------L--|--0------2--------L--|--6------7--------L--|
--2------2--------L--|---------0--------L--|--4------7--------L--|
---------3--------L--|---------------------|---------5--------L--|


  Q.     H        E     Q.     H        E     Q.     H        E   
---------------------|---------------------|---------------------|
---------7--------L--|--5------5--------L--|---------7--------L--|
--9------6--------L--|--6------6--------L--|--9------6--------L--|
--9------9--------L--|--6------7--------L--|--9------9--------L--|
--7------9--------L--|--4------7--------L--|--7------9--------L--|
---------7-----------|---------5--------L--|---------7-----------|


  Q.     H        E     Q.     H        E     Q.     H        E   
---------------------|--2------------------|---------------------|
--3------3--------L--|--3------2--------L--|--3------3--------L--|
--4------0--------L--|--2------2--------L--|--4------0--------L--|
--4------0--------L--|--0------2--------L--|--4------0--------L--|
--2------2--------L--|---------0--------L--|--2------2--------L--|
---------3--------L--|---------------------|---------3--------L--|


  Q.     H        E     Q.     H        E     Q.     H        E   
--2------------------|---------------------|--2------------------|
--3------2--------L--|--3------3--------L--|--3------2--------L--|
--2------2--------L--|--4------0--------L--|--2------2--------L--|
--0------2--------L--|--4------0--------L--|--0------2--------L--|
---------0--------L--|--2------2--------L--|---------0--------L--|
---------------------|---------3--------L--|---------------------|


  Q.     H        E     Q.     H        E     W                  
---------------------|--2------------------|-------------------||
--3------3--------L--|--3------2--------L--|--L----------------||
--4------0--------L--|--2------2--------L--|--L----------------||
--4------0--------L--|--0------2--------L--|--L----------------||
--2------2--------L--|---------0--------L--|--L----------------||
---------3--------L--|---------------------|-------------------||






===============================================================
===============================================================
===============================================================

Guitar solo


  Q    E   E     Q     E  H         E     Q    S. T Q.     S  S S S   
--------------|------------------------|-----------------------------|
--------------|------------------------|-----------------------------|
----------/2--|-------/4-----------/7--|-------9b---7------6h-7-x-4s-|
--------------|------------------------|-----------------------------|
--------------|--4--------5------------|--9--------------------------|
--------------|------------------------|-----------------------------|


  Q     H         S  S S S     Q       E   Q.     T T T T  E   
----------------------------|---------------------------------|
--------9b------------------|-----------------------------15--|
--6~--------------6h-7---4s-|--6brb---------------------x-----|
----------------------------|-------------------------x-------|
----------------------------|----------7s--9--------x---------|
----------------------------|---------------------x-----------|


   Q.       E    Q.        S   S     E.    S  E      Q     Q     S  S  
---------------------------------|--------15--------------------------|
--17b------17b---Lpb------15h-17-|--17b------17pbr--15----17----17-17-|
---------------------------------|------------------------------------|
---------------------------------|------------------------------------|
---------------------------------|------------------------------------|
---------------------------------|------------------------------------|


   S  S  S  S  S  S  S  S  Q.       S   S     S  S  E   S  S  H         E   
------------------------------------------|--------------------------------|
--19----17----15----14----12~------14h-15-|--14--------------15---------L--|
------------------------------------------|-----14-----14------------------|
-----19----17----16----15-----------------|--------14-----14---------------|
------------------------------------------|--------------------------------|
------------------------------------------|--------------------------------|


                  feedback                                                    
   H              W                    W                    W                 
------------|----------------------|--------------------|--------------------|
---L--------|--<>15----------------|---L----------------|---L----------------|
------------|----------------------|--------------------|--------------------|
------------|----------------------|--------------------|--------------------|
------------|----------------------|--------------------|--------------------|
------------|----------------------|--------------------|--------------------|











Duration Legend
---------------
W - whole
H - half
Q - quarter
E - 8th
S - 16th
T - 32nd
X - 64th
. - note dotted
|-n-|  - n-tuplets


Tablature Legend
----------------
L - tied note
x - dead note
g - grace note
(n) - ghost note
> - accentuded note
NH - natural harmonic
AH - artificial harmonic
TH - tapped harmonic
SH - semi harmonic
PH - pitch harmonic
h - hammer on
p - pull off
b - bend
br - bendRelease
pb - preBend
pbr - preBendRelease
brb - bendReleaseBend
\n/ - tremolo bar dip
\n - tremolo bar dive
-/n - tremolo bar Release up
/n\ - tremolo bar inverted dip
/n - tremolo bar return
-\n - tremolo bar Release down
S - shift slide
s - legato slide
/ -  slide into from below or out of upwards
\ -  slide into from above or out of downwards
~ - vibrato
W - wide vibrato
tr - trill
TP - tremolo picking
T - tapping
S - slap
P - pop
< - fade in
^ - brush up
v - brush down





Comments


Popular Saigon Kick tabs & chords
Cruelty Bass Tabs
Love Of God Bass Tabs
My Life Bass Tabs
I Love You Chords
Sergeant Steve Chords
All I Want Tabs
What Do You Do Tabs
What You Say Tabs
All Alright Ukulele
All I Want Ukulele


Song lyrics



↑ Back to top | Tablatures and chords are parodies/interpretations of the original songs. You may use it for private study, scholarship, research or language learning purposes only
© 2014 AZChords.com Contact us | Privacy policy | DMCA | Add/correct tabs | Request tabs | Top 50 tabs