>
 >
Colors

Colors Bass Tabs

Saigon Kick - Colors chords, tabs, tablatures, lyrics

Guitar lessons | Add/correct | Request | Top 50 tabs Artists:  A B C D E F G H I J K L M N O P Q R S T U V W X Y Z 0-9

Colors Bass Tabs – Saigon Kick

CD, Sheet music, Poster

Do you like Colors? Share with your friends now
Bass TabsTabs
-----------------------------------------------------------------------------
                       
-----------------------------------------------------------------------------

Tuning: Standard

=============================================================================

              

Bass



     W                   W                   W                 
G||-------------------|-------------------|-------------------|
D||-------------------|-------------------|-------------------|
A||-------------------|-------------------|-------------------|
E||-------------------|-------------------|-------------------|


  W                   W                   W                   W                 
-------------------|-------------------|-------------------|-------------------|
-------------------|-------------------|-------------------|-------------------|
-------------------|-------------------|-------------------|-------------------|
-------------------|-------------------|-------------------|-------------------|


  W                   W                                       W                 
-------------------|-------------------|-------------------|-------------------|
-------------------|-------------------|-------------------|-------------------|
-------------------|-------------------|-------------------|-------------------|
-------------------|-------------------|-------------------|-------------------|


  W                   W                   W                   W                 
-------------------|-------------------|-------------------|-------------------|
-------------------|-------------------|-------------------|-------------------|
-------------------|-------------------|-------------------|-------------------|
-------------------|-------------------|-------------------|-------------------|


  W                   W                   W                   W                 
-------------------|-------------------|-------------------|-------------------|
-------------------|-------------------|-------------------|-------------------|
-------------------|-------------------|-------------------|-------------------|
-------------------|-------------------|-------------------|-------------------|


  W                   W                   Q.     Q.     Q     
-------------------|-------------------|---------------------|
-------------------|-------------------|---------------------|
-------------------|-------------------|--2------------------|
-------------------|-------------------|---------3------3----|


  Q.     Q.     Q       Q.     Q.     Q       Q.     Q.     Q     
---------------------|---------------------|---------------------|
--0------------------|---------------------|--0------------------|
---------0------0----|--2------------------|---------0------0----|
---------------------|---------3------3----|---------------------|


  Q.     Q.     Q       Q.     Q.     Q       Q.     Q.     Q     
---------------------|---------------------|---------------------|
---------------------|--0------------------|---------------------|
--2------------------|---------0------0----|--2------------------|
---------3------3----|---------------------|---------3------3----|


  Q.     E  H           Q    Q       Q.     H        E   
---------------------|------------|---------------------|
--0------------------|------------|---------------------|
---------0--0--------|--L---------|--2------------------|
---------------------|------------|---------3--------L--|


  Q    S S Q    E  E  E     Q.     H        E     Q    S S Q    E  Q     
-------------------------|---------------------|-------------------4----|
-----------5----4--2--0--|---------------------|-----------5----7-------|
--2----2-2---------------|--2------------------|--2----2-2--------------|
-------------------------|---------3--------L--|------------------------|


  Q.     H        E     Q    S S Q    E  E  E     Q.     H        E   
---------------------|-------------------------|---------------------|
---------------------|-----------5----4--2--0--|---------------------|
--2------------------|--2----2-2---------------|--2------------------|
---------3--------L--|-------------------------|---------3--------L--|


  Q    S S E  E  E  Q       Q.     H        E     Q    S S Q    E  E  E   
--------------------4----|---------------------|-------------------------|
-----------5--5--7-------|---------------------|-----------5----4--2--0--|
--2----2-2---------------|--2------------------|--2----2-2---------------|
-------------------------|---------3--------L--|-------------------------|


  Q.     H        E     Q    S S E  E  E  Q       Q.     H        E   
---------------------|--------------------4----|---------------------|
---------------------|-----------5--5--7-------|---------------------|
--2------------------|--2----2-2---------------|--2------------------|
---------3--------L--|-------------------------|---------3--------L--|


  Q    S S Q    E  E  E     Q.     H        E     Q    S S E  E  E  Q     
-------------------------|---------------------|--------------------4----|
-----------5----4--2--0--|---------------------|-----------5--5--7-------|
--2----2-2---------------|--2------------------|--2----2-2---------------|
-------------------------|---------3--------L--|-------------------------|


  Q.     H        E     Q    S S Q    E  E  E     Q.     H        E   
---------------------|-------------------------|---------------------|
---------------------|-----------5----4--2--0--|---------------------|
--2------------------|--2----2-2---------------|--2------------------|
---------3--------L--|-------------------------|---------3--------L--|


  Q    S S E  E  E  Q       Q.     Q.     Q       Q.     Q.     Q     
--------------------4----|---------------------|---------------------|
-----------5--5--7-------|---------------------|--0------------------|
--2----2-2---------------|--2------------------|---------0------0----|
-------------------------|---------3------3----|---------------------|


  Q.     Q.     Q       Q.     Q.     Q       Q.     Q.     Q     
---------------------|---------------------|---------------------|
---------------------|--0------------------|---------------------|
--2------------------|---------0------0----|--2------------------|
---------3------3----|---------------------|---------3------3----|


  Q.     Q.     Q       Q.     Q.     Q       Q.     E  H           Q    Q     
---------------------|---------------------|---------------------|------------|
--0------------------|---------------------|--0------------------|------------|
---------0------0----|--2------------------|---------0--0--------|--L---------|
---------------------|---------3------3----|---------------------|------------|


  Q.     H        E     Q    S S Q    E  E  E     Q.     H        E   
---------------------|-------------------------|---------------------|
---------------------|-----------5----4--2--0--|---------------------|
--2------------------|--2----2-2---------------|--2------------------|
---------3--------L--|-------------------------|---------3--------L--|


  Q    S S E  E  E  Q       Q.     H        E     Q    S S Q    E  E  E   
--------------------4----|---------------------|-------------------------|
-----------5--5--7-------|---------------------|-----------5----4--2--0--|
--2----2-2---------------|--2------------------|--2----2-2---------------|
-------------------------|---------3--------L--|-------------------------|


  Q.     H        E     Q.     E  H           H           W                 
---------------------|---------------------|-----------|-------------------|
---------------------|---------------------|-----------|-------------------|
--2------------------|--2------2--2--------|--L--------|-------------------|
---------3--------L--|---------------------|-----------|-------------------|


  W                   W                   W                 
-------------------|-------------------|-------------------|
-------------------|-------------------|-------------------|
-------------------|-------------------|-------------------|
-------------------|-------------------|-------------------|


  Q.     Q.     Q       Q.     Q.     Q       Q.     Q.     Q     
---------------------|---------------------|---------------------|
---------------------|--0------------------|---------------------|
--2------------------|---------0------0----|--2------------------|
---------3------3----|---------------------|---------3------3----|


  Q.     Q.     Q       Q.     Q.     Q       Q.     Q.     Q     
---------------------|---------------------|---------------------|
--0------------------|---------------------|--0------------------|
---------0------0----|--2------------------|---------0------0----|
---------------------|---------3------3----|---------------------|


  Q.     Q.     Q       Q.     E  H           Q.     Q.     Q     
---------------------|---------------------|---------------------|
---------------------|--0------------------|---------------------|
--2------------------|---------0--0--------|--4------------------|
---------3------3----|---------------------|---------5------5----|


  Q.     Q.     Q       Q.     Q.     Q       Q.     Q.     Q     
---------------------|---------------------|---------------------|
---------------------|---------------------|---------------------|
--7------------------|--4------------------|--7------------------|
---------7------7----|---------5------5----|---------7------7----|


  Q.     Q.     Q       Q.     Q.     Q       Q.     Q.     Q     
---------------------|---------------------|---------------------|
---------------------|--0------------------|---------------------|
--2------------------|---------0------0----|--2------------------|
---------3------3----|---------------------|---------3------3----|


  Q.     Q.     Q       Q.     Q.     Q       Q.     Q.     Q     
---------------------|---------------------|---------------------|
--0------------------|---------------------|--0------------------|
---------0------0----|--2------------------|---------0------0----|
---------------------|---------3------3----|---------------------|


  Q.     Q.     Q       Q.     Q.     Q       H        H          
---------------------|---------------------|--------------------||
---------------------|--0------------------|--------------------||
--2------------------|---------0------L----|--L-----------------||
---------3------3----|---------------------|--------------------||




Duration Legend
---------------
W - whole
H - half
Q - quarter
E - 8th
S - 16th
T - 32nd
X - 64th
. - note dotted
|-n-|  - n-tuplets


Tablature Legend
----------------
L - tied note
x - dead note
g - grace note
(n) - ghost note
> - accentuded note
NH - natural harmonic
AH - artificial harmonic
TH - tapped harmonic
SH - semi harmonic
PH - pitch harmonic
h - hammer on
p - pull off
b - bend
br - bendRelease
pb - preBend
pbr - preBendRelease
brb - bendReleaseBend
\n/ - tremolo bar dip
\n - tremolo bar dive
-/n - tremolo bar Release up
/n\ - tremolo bar inverted dip
/n - tremolo bar return
-\n - tremolo bar Release down
S - shift slide
s - legato slide
/ -  slide into from below or out of upwards
\ -  slide into from above or out of downwards
~ - vibrato
W - wide vibrato
tr - trill
TP - tremolo picking
T - tapping
S - slap
P - pop
< - fade in
^ - brush up
v - brush down





Comments


Popular Saigon Kick tabs & chords
What You Say Bass Tabs
Sergeant Steve Chords
All I Want Tabs
Come Take Me Now Tabs
Love Is On The Way 1 Tabs
Love Of God Tabs
Sleep Tabs
All Alright Ukulele
All I Want Ukulele
Fields Of Rape Ukulele


Song lyrics



↑ Back to top | Tablatures and chords are parodies/interpretations of the original songs. You may use it for private study, scholarship, research or language learning purposes only
© 2014 AZChords.com Contact us | Privacy policy | DMCA | Add/correct tabs | Request tabs | Top 50 tabs