>
 >
All I Want

All I Want Guitar Tabs

Saigon Kick - All I Want chords, tabs, tablatures, lyrics

Guitar lessons | Add/correct | Request | Top 50 tabs Artists:  A B C D E F G H I J K L M N O P Q R S T U V W X Y Z 0-9

All I Want Guitar Tabs – Saigon Kick

CD, Sheet music, Poster

Do you like All I Want? Share with your friends now
Bass TabsChordsTabsUkulele
-----------------------------------------------------------------------------

-----------------------------------------------------------------------------

Tuning: Standard

=============================================================================




Guitar 1
             Asus2
             S     S S S S S S S S S S S S S S S
E||-------|--0-----0-0-0-0-0-0-0-0-0-0-0-0-0-0-0-|
B||-------|--0-----0-0-0-0-0-0-0-0-0-0-0-0-0-0-0-|
G||-------|--7-----7-7-6-6-6-7-7-7-6-6-6-7-7-6-6-|
D||-------|--7-----7-7-7-7-7-7-7-7-7-7-7-7-7-7-7-|
A||-------|--0-----0-0-0-0-0-0-0-0-0-0-0-0-0-0-0-|
E||-------|--------------------------------------|


  S S S S S S S S S S S S S S S S    S S S S S S S S S S S S S S S S
--0-0-0-0-0-0-0-0-0-0-0-0-0-0-0-0-|--0-0-0-0-0-0-0-0-0-0-0-0-0-0-0-0-|
--0-0-0-0-0-0-0-0-0-0-0-0-0-0-0-0-|--0-0-0-0-0-0-0-0-0-0-0-0-0-0-0-0-|
--7-7-7-6-6-6-7-7-7-6-6-6-7-7-6-6-|--7-7-7-6-6-6-7-7-7-6-6-6-7-7-6-6-|
--7-7-7-7-7-7-7-7-7-7-7-7-7-7-7-7-|--7-7-7-7-7-7-7-7-7-7-7-7-7-7-7-7-|
--0-0-0-0-0-0-0-0-0-0-0-0-0-0-0-0-|--0-0-0-0-0-0-0-0-0-0-0-0-0-0-0-0-|
----------------------------------|----------------------------------|


  S S S S S S S S S S S S S S S S    S S S S S S S S S S S S S S S S
--0-0-0-0-0-0-0-0-0-0-0-0-0-0-0-0-|--0-0-0-0-0-0-0-0-0-0-0-0-0-0-0-0-|
--0-0-0-0-0-0-0-0-0-0-0-0-0-0-0-0-|--0-0-0-0-0-0-0-0-0-0-0-0-0-0-0-0-|
--7-7-7-6-6-6-7-7-7-6-6-6-7-7-6-6-|--7-7-7-6-6-6-7-7-7-6-6-6-7-7-6-6-|
--7-7-7-7-7-7-7-7-7-7-7-7-7-7-7-7-|--7-7-7-7-7-7-7-7-7-7-7-7-7-7-7-7-|
--0-0-0-0-0-0-0-0-0-0-0-0-0-0-0-0-|--0-0-0-0-0-0-0-0-0-0-0-0-0-0-0-0-|
----------------------------------|----------------------------------|


  S S S S S S S S S S S S S S S S    S S S S S S S S S S S S S S S S
--0-0-0-0-0-0-0-0-0-0-0-0-0-0-0-0-|--0-0-0-0-0-0-0-0-0-0-0-0-0-0-0-0-|
--0-0-0-0-0-0-0-0-0-0-0-0-0-0-0-0-|--0-0-0-0-0-0-0-0-0-0-0-0-0-0-0-0-|
--7-7-7-6-6-6-7-7-7-6-6-6-7-7-6-6-|--7-7-7-6-6-6-7-7-7-6-6-6-7-7-6-6-|
--7-7-7-7-7-7-7-7-7-7-7-7-7-7-7-7-|--7-7-7-7-7-7-7-7-7-7-7-7-7-7-7-7-|
--0-0-0-0-0-0-0-0-0-0-0-0-0-0-0-0-|--0-0-0-0-0-0-0-0-0-0-0-0-0-0-0-0-|
----------------------------------|----------------------------------|


  S S S S S S S S S S S S S S S S    S S S S S S S S S S S S S S S S
--0-0-0-0-0-0-0-0-0-0-0-0-0-0-0-0-|--0-0-0-0-0-0-0-0-0-0-0-0-0-0-0-0-|
--0-0-0-0-0-0-0-0-0-0-0-0-0-0-0-0-|--0-0-0-0-0-0-0-0-0-0-0-0-0-0-0-0-|
--7-7-7-6-6-6-7-7-7-6-6-6-7-7-6-6-|--7-7-7-6-6-6-7-7-7-6-6-6-7-7-6-6-|
--7-7-7-7-7-7-7-7-7-7-7-7-7-7-7-7-|--7-7-7-7-7-7-7-7-7-7-7-7-7-7-7-7-|
--0-0-0-0-0-0-0-0-0-0-0-0-0-0-0-0-|--0-0-0-0-0-0-0-0-0-0-0-0-0-0-0-0-|
----------------------------------|----------------------------------|


                                     G            G  G
                                     ^
  S S S S S S S S S S S S S S S S    H.           E  E
--0-0-0-0-0-0-0-0-0-0-0-0-0-0-0-0-|--3------------3--L/--|
--0-0-0-0-0-0-0-0-0-0-0-0-0-0-0-0-|--3------------3--L/--|
--7-7-7-6-6-6-7-7-7-6-6-6-7-7-6-6-|--0------------0--L---|
--7-7-7-7-7-7-7-7-7-7-7-7-7-7-7-7-|--0------------0--L---|
--0-0-0-0-0-0-0-0-0-0-0-0-0-0-0-0-|--2------------2--L/--|
----------------------------------|--3------------3--L/--|


  Asus2        Asus2 Asus2    G            G  G      Asus2
  ^                           ^                      ^
  H.           E     E        H.           E  E      W
--0------------0-----L-----|--3------------3--L/--|--0----------------|
--0------------0-----L-----|--3------------3--L/--|--0----------------|
--2------------2-----L/----|--0------------0--L---|--2----------------|
--2------------2-----L/----|--0------------0--L---|--2----------------|
--0------------0-----L-----|--2------------2--L/--|--0----------------|
---------------------------|--3------------3--L/--|-------------------|


  S S S S S S S S S S S S S S S S    S S S S S S S S S S S S S S S S
--0-0-0-0-0-0-0-0-0-0-0-0-0-0-0-0-|--0-0-0-0-0-0-0-0-0-0-0-0-0-0-0-0-|
--0-0-0-0-0-0-0-0-0-0-0-0-0-0-0-0-|--0-0-0-0-0-0-0-0-0-0-0-0-0-0-0-0-|
--7-7-7-6-6-6-7-7-7-6-6-6-7-7-6-6-|--7-7-7-6-6-6-7-7-7-6-6-6-7-7-6-6-|
--7-7-7-7-7-7-7-7-7-7-7-7-7-7-7-7-|--7-7-7-7-7-7-7-7-7-7-7-7-7-7-7-7-|
--0-0-0-0-0-0-0-0-0-0-0-0-0-0-0-0-|--0-0-0-0-0-0-0-0-0-0-0-0-0-0-0-0-|
----------------------------------|----------------------------------|


  S S S S S S S S S S S S S S S S    S S S S S S S S S S S S S S S S
--0-0-0-0-0-0-0-0-0-0-0-0-0-0-0-0-|--0-0-0-0-0-0-0-0-0-0-0-0-0-0-0-0-|
--0-0-0-0-0-0-0-0-0-0-0-0-0-0-0-0-|--0-0-0-0-0-0-0-0-0-0-0-0-0-0-0-0-|
--7-7-7-6-6-6-7-7-7-6-6-6-7-7-6-6-|--7-7-7-6-6-6-7-7-7-6-6-6-7-7-6-6-|
--7-7-7-7-7-7-7-7-7-7-7-7-7-7-7-7-|--7-7-7-7-7-7-7-7-7-7-7-7-7-7-7-7-|
--0-0-0-0-0-0-0-0-0-0-0-0-0-0-0-0-|--0-0-0-0-0-0-0-0-0-0-0-0-0-0-0-0-|
----------------------------------|----------------------------------|


  S S S S S S S S S S S S S S S S    S S S S S S S S S S S S S S S S
--0-0-0-0-0-0-0-0-0-0-0-0-0-0-0-0-|--0-0-0-0-0-0-0-0-0-0-0-0-0-0-0-0-|
--0-0-0-0-0-0-0-0-0-0-0-0-0-0-0-0-|--0-0-0-0-0-0-0-0-0-0-0-0-0-0-0-0-|
--7-7-7-6-6-6-7-7-7-6-6-6-7-7-6-6-|--7-7-7-6-6-6-7-7-7-6-6-6-7-7-6-6-|
--7-7-7-7-7-7-7-7-7-7-7-7-7-7-7-7-|--7-7-7-7-7-7-7-7-7-7-7-7-7-7-7-7-|
--0-0-0-0-0-0-0-0-0-0-0-0-0-0-0-0-|--0-0-0-0-0-0-0-0-0-0-0-0-0-0-0-0-|
----------------------------------|----------------------------------|


  G            G  G      Asus2        Asus2 Asus2    G            G  G
  ^                      ^                           ^
  H.           E  E      H.           E     E        H.           E  E
--3------------3--L/--|--0------------0-----L-----|--3------------3--L/--|
--3------------3--L/--|--0------------0-----L-----|--3------------3--L/--|
--0------------0--L---|--2------------2-----L/----|--0------------0--L---|
--0------------0--L---|--2------------2-----L/----|--0------------0--L---|
--2------------2--L/--|--0------------0-----L-----|--2------------2--L/--|
--3------------3--L/--|---------------------------|--3------------3--L/--|


  Asus2
  ^
  W                   E.  E.  Q    E  Q       E.  E.  Q    E  Q
--0----------------|--2---2---2----L--2----|-----------------------|
--0----------------|--3---3---3----L--3----|--3---3---3----L--3----|
--2----------------|--2---2---2----L--2----|--0---0---0----L--0----|
--2----------------|--0---0---0----L--0----|--0---0---0----L--0----|
--0----------------|-----------------------|--2---2---2----L--2----|
-------------------|-----------------------|--3---3---3----L--3----|


  ^                      ^
  H.           E  S S    H.           E  S S    E.  E.  Q    E  Q
--0------------L--0-0-|--0------------L--0-0-|--2---2---2----L--2----|
--0------------L--0-0-|--0------------L--0-0-|--3---3---3----L--3----|
--2------------L--2-2-|--2------------L--2-2-|--2---2---2----L--2----|
--2------------L--2-2-|--2------------L--2-2-|--0---0---0----L--0----|
--0------------L--0-0-|--0------------L--0-0-|-----------------------|
----------------------|----------------------|-----------------------|


                          ^                      ^
  E.  E.  Q    E  Q       H.           E  S S    W
-----------------------|--0------------L--0-0-|--0----------------|
--3---3---3----L--3----|--0------------L--0-0-|--0----------------|
--0---0---0----L--0----|--2------------L--2-2-|--2----------------|
--0---0---0----L--0----|--2------------L--2-2-|--2----------------|
--2---2---2----L--2----|--0------------L--0-0-|--0----------------|
--3---3---3----L--3----|----------------------|-------------------|


  S S S S S S S S S S S S S S S S    S S S S S S S S S S S S S S S S
--0-0-0-0-0-0-0-0-0-0-0-0-0-0-0-0-|--0-0-0-0-0-0-0-0-0-0-0-0-0-0-0-0-|
--0-0-0-0-0-0-0-0-0-0-0-0-0-0-0-0-|--0-0-0-0-0-0-0-0-0-0-0-0-0-0-0-0-|
--7-7-7-6-6-6-7-7-7-6-6-6-7-7-6-6-|--7-7-7-6-6-6-7-7-7-6-6-6-7-7-6-6-|
--7-7-7-7-7-7-7-7-7-7-7-7-7-7-7-7-|--7-7-7-7-7-7-7-7-7-7-7-7-7-7-7-7-|
--0-0-0-0-0-0-0-0-0-0-0-0-0-0-0-0-|--0-0-0-0-0-0-0-0-0-0-0-0-0-0-0-0-|
----------------------------------|----------------------------------|


  S S S S S S S S S S S S S S S S    S S S S S S S S S S S S S S S S
--0-0-0-0-0-0-0-0-0-0-0-0-0-0-0-0-|--0-0-0-0-0-0-0-0-0-0-0-0-0-0-0-0-|
--0-0-0-0-0-0-0-0-0-0-0-0-0-0-0-0-|--0-0-0-0-0-0-0-0-0-0-0-0-0-0-0-0-|
--7-7-7-6-6-6-7-7-7-6-6-6-7-7-6-6-|--7-7-7-6-6-6-7-7-7-6-6-6-7-7-6-6-|
--7-7-7-7-7-7-7-7-7-7-7-7-7-7-7-7-|--7-7-7-7-7-7-7-7-7-7-7-7-7-7-7-7-|
--0-0-0-0-0-0-0-0-0-0-0-0-0-0-0-0-|--0-0-0-0-0-0-0-0-0-0-0-0-0-0-0-0-|
----------------------------------|----------------------------------|


  S S S S S S S S S S S S S S S S    S S S S S S S S S S S S S S S S
--0-0-0-0-0-0-0-0-0-0-0-0-0-0-0-0-|--0-0-0-0-0-0-0-0-0-0-0-0-0-0-0-0-|
--0-0-0-0-0-0-0-0-0-0-0-0-0-0-0-0-|--0-0-0-0-0-0-0-0-0-0-0-0-0-0-0-0-|
--7-7-7-6-6-6-7-7-7-6-6-6-7-7-6-6-|--7-7-7-6-6-6-7-7-7-6-6-6-7-7-6-6-|
--7-7-7-7-7-7-7-7-7-7-7-7-7-7-7-7-|--7-7-7-7-7-7-7-7-7-7-7-7-7-7-7-7-|
--0-0-0-0-0-0-0-0-0-0-0-0-0-0-0-0-|--0-0-0-0-0-0-0-0-0-0-0-0-0-0-0-0-|
----------------------------------|----------------------------------|


  G            G  G      Asus2        Asus2 Asus2    G            G  G
  ^                      ^                           ^
  H.           E  E      H.           E     E        H.           E  E
--3------------3--L/--|--0------------0-----L-----|--3------------3--L/--|
--3------------3--L/--|--0------------0-----L-----|--3------------3--L/--|
--0------------0--L---|--2------------2-----L/----|--0------------0--L---|
--0------------0--L---|--2------------2-----L/----|--0------------0--L---|
--2------------2--L/--|--0------------0-----L-----|--2------------2--L/--|
--3------------3--L/--|---------------------------|--3------------3--L/--|


  Asus2
  ^
  W                   E.  E.  Q    E  Q       E.  E.  Q    E  Q
--0----------------|--2---2---2----L--2----|-----------------------|
--0----------------|--3---3---3----L--3----|--3---3---3----L--3----|
--2----------------|--2---2---2----L--2----|--0---0---0----L--0----|
--2----------------|--0---0---0----L--0----|--0---0---0----L--0----|
--0----------------|-----------------------|--2---2---2----L--2----|
-------------------|-----------------------|--3---3---3----L--3----|


  ^                      ^
  H.           E  S S    H.           E  S S    E.  E.  Q    E  Q
--0------------L--0-0-|--0------------L--0-0-|--2---2---2----L--2----|
--0------------L--0-0-|--0------------L--0-0-|--3---3---3----L--3----|
--2------------L--2-2-|--2------------L--2-2-|--2---2---2----L--2----|
--2------------L--2-2-|--2------------L--2-2-|--0---0---0----L--0----|
--0------------L--0-0-|--0------------L--0-0-|-----------------------|
----------------------|----------------------|-----------------------|


                          ^                      ^
  E.  E.  Q    E  Q       H.           E  S S    W
-----------------------|--0------------L--0-0-|--0----------------|
--3---3---3----L--3----|--0------------L--0-0-|--0----------------|
--0---0---0----L--0----|--2------------L--2-2-|--2----------------|
--0---0---0----L--0----|--2------------L--2-2-|--2----------------|
--2---2---2----L--2----|--0------------L--0-0-|--0----------------|
--3---3---3----L--3----|----------------------|-------------------|


  E.  E.  Q    E  Q       E.  E.  Q    E  Q       E.  E.  Q    E  Q
-----------------------|-----------------------|-----------------------|
--0---0---0----L--0----|--3---3---3----L--3----|--3---3---3----L--3----|
--2---2---2----L--2----|--4---4---4----L--4----|--2---2---2----L--2----|
--2---2---2-------2----|--5---5---5----L--5----|--0---0---0----L--0----|
--0---0---0----L--0----|-----------------------|-----------------------|
-----------------------|-----------------------|-----------------------|


  E.  E.  Q    E  Q       E.  E.  Q    E  Q       E.  E.  Q    E  Q
-----------------------|-----------------------|-----------------------|
--1---1---1----L--1----|--0---0---0----L--0----|--3---3---3----L--3----|
--2---2---2----L--2----|--2---2---2----L--2----|--4---4---4----L--4----|
--3---3---3----L--3----|--2---2---2-------2----|--5---5---5----L--5----|
-----------------------|--0---0---0----L--0----|-----------------------|
-----------------------|-----------------------|-----------------------|


  E.  E.  Q    E  Q       E.  E.  Q    E  Q       E.  E.  Q    E  Q
-----------------------|-----------------------|-----------------------|
--3---3---3----L--3----|--1---1---1----L--1----|--0---0---0----L--0----|
--2---2---2----L--2----|--2---2---2----L--2----|--2---2---2----L--2----|
--0---0---0----L--0----|--3---3---3----L--3----|--2---2---2-------2----|
-----------------------|-----------------------|--0---0---0----L--0----|
-----------------------|-----------------------|-----------------------|


  E.  E.  Q    E  Q       E.  E.  Q    E  Q       E.  E.  Q    E  Q
-----------------------|-----------------------|-----------------------|
--3---3---3----L--3----|--3---3---3----L--3----|--1---1---1----L--1----|
--4---4---4----L--4----|--2---2---2----L--2----|--2---2---2----L--2----|
--5---5---5----L--5----|--0---0---0----L--0----|--3---3---3----L--3----|
-----------------------|-----------------------|-----------------------|
-----------------------|-----------------------|-----------------------|


  E.  E.  Q    E  Q       E.  E.  Q    E  Q       E.  E.  Q    E  Q
-----------------------|-----------------------|-----------------------|
--0---0---0----L--0----|--3---3---3----L--3----|--3---3---3----L--3----|
--2---2---2----L--2----|--4---4---4----L--4----|--2---2---2----L--2----|
--2---2---2-------2----|--5---5---5----L--5----|--0---0---0----L--0----|
--0---0---0----L--0----|-----------------------|-----------------------|
-----------------------|-----------------------|-----------------------|


  W                   W                   W                   W
-------------------|-------------------|-------------------|-------------------|
--1----------------|-------------------|-------------------|-------------------|
--2----------------|-------------------|-------------------|-------------------|
--3----------------|-------------------|-------------------|-------------------|
-------------------|-------------------|-------------------|-------------------|
-------------------|-------------------|-------------------|-------------------|


  Asus2
  S     S S S S S S S S S S S S S S S    S S S S S S S S S S S S S S S S
--0-----0-0-0-0-0-0-0-0-0-0-0-0-0-0-0-|--0-0-0-0-0-0-0-0-0-0-0-0-0-0-0-0-|
--0-----0-0-0-0-0-0-0-0-0-0-0-0-0-0-0-|--0-0-0-0-0-0-0-0-0-0-0-0-0-0-0-0-|
--7-----7-7-6-6-6-7-7-7-6-6-6-7-7-6-6-|--7-7-7-6-6-6-7-7-7-6-6-6-7-7-6-6-|
--7-----7-7-7-7-7-7-7-7-7-7-7-7-7-7-7-|--7-7-7-7-7-7-7-7-7-7-7-7-7-7-7-7-|
--0-----0-0-0-0-0-0-0-0-0-0-0-0-0-0-0-|--0-0-0-0-0-0-0-0-0-0-0-0-0-0-0-0-|
--------------------------------------|----------------------------------|


  S S S S S S S S S S S S S S S S    S S S S S S S S S S S S S S S S
--0-0-0-0-0-0-0-0-0-0-0-0-0-0-0-0-|--0-0-0-0-0-0-0-0-0-0-0-0-0-0-0-0-|
--0-0-0-0-0-0-0-0-0-0-0-0-0-0-0-0-|--0-0-0-0-0-0-0-0-0-0-0-0-0-0-0-0-|
--7-7-7-6-6-6-7-7-7-6-6-6-7-7-6-6-|--7-7-7-6-6-6-7-7-7-6-6-6-7-7-6-6-|
--7-7-7-7-7-7-7-7-7-7-7-7-7-7-7-7-|--7-7-7-7-7-7-7-7-7-7-7-7-7-7-7-7-|
--0-0-0-0-0-0-0-0-0-0-0-0-0-0-0-0-|--0-0-0-0-0-0-0-0-0-0-0-0-0-0-0-0-|
----------------------------------|----------------------------------|


  S S S S S S S S S S S S S S S S    S S S S S S S S S S S S S S S S
--0-0-0-0-0-0-0-0-0-0-0-0-0-0-0-0-|--0-0-0-0-0-0-0-0-0-0-0-0-0-0-0-0-|
--0-0-0-0-0-0-0-0-0-0-0-0-0-0-0-0-|--0-0-0-0-0-0-0-0-0-0-0-0-0-0-0-0-|
--7-7-7-6-6-6-7-7-7-6-6-6-7-7-6-6-|--7-7-7-6-6-6-7-7-7-6-6-6-7-7-6-6-|
--7-7-7-7-7-7-7-7-7-7-7-7-7-7-7-7-|--7-7-7-7-7-7-7-7-7-7-7-7-7-7-7-7-|
--0-0-0-0-0-0-0-0-0-0-0-0-0-0-0-0-|--0-0-0-0-0-0-0-0-0-0-0-0-0-0-0-0-|
----------------------------------|----------------------------------|


  S S S S S S S S S S S S S S S S    S S S S S S S S S S S S S S S S
--0-0-0-0-0-0-0-0-0-0-0-0-0-0-0-0-|--0-0-0-0-0-0-0-0-0-0-0-0-0-0-0-0-|
--0-0-0-0-0-0-0-0-0-0-0-0-0-0-0-0-|--0-0-0-0-0-0-0-0-0-0-0-0-0-0-0-0-|
--7-7-7-6-6-6-7-7-7-6-6-6-7-7-6-6-|--7-7-7-6-6-6-7-7-7-6-6-6-7-7-6-6-|
--7-7-7-7-7-7-7-7-7-7-7-7-7-7-7-7-|--7-7-7-7-7-7-7-7-7-7-7-7-7-7-7-7-|
--0-0-0-0-0-0-0-0-0-0-0-0-0-0-0-0-|--0-0-0-0-0-0-0-0-0-0-0-0-0-0-0-0-|
----------------------------------|----------------------------------|


  S S S S S S S S S S S S S S S S    S S S S S S S S S S S S S S S S
--0-0-0-0-0-0-0-0-0-0-0-0-0-0-0-0-|--0-0-0-0-0-0-0-0-0-0-0-0-0-0-0-0-|
--0-0-0-0-0-0-0-0-0-0-0-0-0-0-0-0-|--0-0-0-0-0-0-0-0-0-0-0-0-0-0-0-0-|
--7-7-7-6-6-6-7-7-7-6-6-6-7-7-6-6-|--7-7-7-6-6-6-7-7-7-6-6-6-7-7-6-6-|
--7-7-7-7-7-7-7-7-7-7-7-7-7-7-7-7-|--7-7-7-7-7-7-7-7-7-7-7-7-7-7-7-7-|
--0-0-0-0-0-0-0-0-0-0-0-0-0-0-0-0-|--0-0-0-0-0-0-0-0-0-0-0-0-0-0-0-0-|
----------------------------------|----------------------------------|


  G            G  G      Asus2        Asus2 Asus2    G            G  G
  ^                      ^                           ^
  H.           E  E      H.           E     E        H.           E  E
--3------------3--L/--|--0------------0-----L-----|--3------------3--L/--|
--3------------3--L/--|--0------------0-----L-----|--3------------3--L/--|
--0------------0--L---|--2------------2-----L/----|--0------------0--L---|
--0------------0--L---|--2------------2-----L/----|--0------------0--L---|
--2------------2--L/--|--0------------0-----L-----|--2------------2--L/--|
--3------------3--L/--|---------------------------|--3------------3--L/--|


  Asus2        Asus2 Asus2    G            G  G      Asus2        Asus2 Asus2
  ^                           ^                      ^
  H.           E     E        H.           E  E      H.           E     E
--0------------0-----L-----|--3------------3--L/--|--0------------0-----L-----|
--0------------0-----L-----|--3------------3--L/--|--0------------0-----L-----|
--2------------2-----L/----|--0------------0--L---|--2------------2-----L/----|
--2------------2-----L/----|--0------------0--L---|--2------------2-----L/----|
--0------------0-----L-----|--2------------2--L/--|--0------------0-----L-----|
---------------------------|--3------------3--L/--|---------------------------|


  G            G  G      Asus2               G
  ^                      ^                   ^
  H.           E  E      W                   W
--3------------3--L/--|--0----------------|--3----------------|
--3------------3--L/--|--0----------------|--3----------------|
--0------------0--L---|--2----------------|--0----------------|
--0------------0--L---|--2----------------|--0----------------|
--2------------2--L/--|--0----------------|--2----------------|
--3------------3--L/--|-------------------|--3----------------|


  Asus2               G                   Asus2
  ^                   ^                   ^
  W                   W                   W
--0----------------|--3----------------|--0----------------|
--0----------------|--3----------------|--0----------------|
--2----------------|--0----------------|--2----------------|
--2----------------|--0----------------|--2----------------|
--0----------------|--2----------------|--0----------------|
-------------------|--3----------------|-------------------|


  Asus2
  W
--L----------------||
--L----------------||
--L----------------||
--L----------------||
--L----------------||
-------------------||




===================================================================================
===================================================================================
===================================================================================

The second guitar is very similar to the first but the rhythmic strumming is completely 
different giving the song a loose but full feel.

===================================================================================

Guitar 2
             Asus2                      Asus2
             E.    E.  E.  E.  E  E     E.    E.  E.  E.  E  E
E||-------|--0-----0---0---0---0--0--|--0-----0---0---0---0--0--|
B||-------|--0-----0---0---0---0--0--|--0-----0---0---0---0--0--|
G||-------|--7-----6---7---6---7--6--|--7-----6---7---6---7--6--|
D||-------|--7-----7---7---7---7--7--|--7-----7---7---7---7--7--|
A||-------|--0-----0---0---0---0--0--|--0-----0---0---0---0--0--|
E||-------|--------------------------|--------------------------|


  Asus2                      Asus2
  E.    E.  E.  E.  E  E     E.    E.  E.  E.  E  E
--0-----0---0---0---0--0--|--0-----0---0---0---0--0--|
--0-----0---0---0---0--0--|--0-----0---0---0---0--0--|
--7-----6---7---6---7--6--|--7-----6---7---6---7--6--|
--7-----7---7---7---7--7--|--7-----7---7---7---7--7--|
--0-----0---0---0---0--0--|--0-----0---0---0---0--0--|
--------------------------|--------------------------|


  Asus2                      Asus2
  E.    E.  E.  E.  E  E     E.    E.  E.  E.  E  E
--0-----0---0---0---0--0--|--0-----0---0---0---0--0--|
--0-----0---0---0---0--0--|--0-----0---0---0---0--0--|
--7-----6---7---6---7--6--|--7-----6---7---6---7--6--|
--7-----7---7---7---7--7--|--7-----7---7---7---7--7--|
--0-----0---0---0---0--0--|--0-----0---0---0---0--0--|
--------------------------|--------------------------|


  Asus2                      Asus2
  E.    E.  E.  E.  E  E     E.    E.  E.  E.  E  E
--0-----0---0---0---0--0--|--0-----0---0---0---0--0--|
--0-----0---0---0---0--0--|--0-----0---0---0---0--0--|
--7-----6---7---6---7--6--|--7-----6---7---6---7--6--|
--7-----7---7---7---7--7--|--7-----7---7---7---7--7--|
--0-----0---0---0---0--0--|--0-----0---0---0---0--0--|
--------------------------|--------------------------|


  Asus2                      Asus2                      G
                                                        ^
  E.    E.  E.  E.  E  E     E.    E.  E.  E.  E  E     W
--0-----0---0---0---0--0--|--0-----0---0---0---0--0--|--3----------------|
--0-----0---0---0---0--0--|--0-----0---0---0---0--0--|--3----------------|
--7-----6---7---6---7--6--|--7-----6---7---6---7--6--|--0----------------|
--7-----7---7---7---7--7--|--7-----7---7---7---7--7--|--0----------------|
--0-----0---0---0---0--0--|--0-----0---0---0---0--0--|-------------------|
--------------------------|--------------------------|-------------------|


  Asus2               G                   Asus2
  ^                   ^                   ^
  W                   W                   W
--0----------------|--3----------------|--0----------------|
--0----------------|--3----------------|--0----------------|
--2----------------|--0----------------|--2----------------|
--2----------------|--0----------------|--2----------------|
-------------------|-------------------|-------------------|
-------------------|-------------------|-------------------|


  Asus2                      Asus2
  E.    E.  E.  E.  E  E     E.    E.  E.  E.  E  E
--0-----0---0---0---0--0--|--0-----0---0---0---0--0--|
--0-----0---0---0---0--0--|--0-----0---0---0---0--0--|
--7-----6---7---6---7--6--|--7-----6---7---6---7--6--|
--7-----7---7---7---7--7--|--7-----7---7---7---7--7--|
--0-----0---0---0---0--0--|--0-----0---0---0---0--0--|
--------------------------|--------------------------|


  Asus2                      Asus2
  E.    E.  E.  E.  E  E     E.    E.  E.  E.  E  E
--0-----0---0---0---0--0--|--0-----0---0---0---0--0--|
--0-----0---0---0---0--0--|--0-----0---0---0---0--0--|
--7-----6---7---6---7--6--|--7-----6---7---6---7--6--|
--7-----7---7---7---7--7--|--7-----7---7---7---7--7--|
--0-----0---0---0---0--0--|--0-----0---0---0---0--0--|
--------------------------|--------------------------|


  Asus2                      Asus2                      G
                                                        ^
  E.    E.  E.  E.  E  E     E.    E.  E.  E.  E  E     W
--0-----0---0---0---0--0--|--0-----0---0---0---0--0--|--3----------------|
--0-----0---0---0---0--0--|--0-----0---0---0---0--0--|--3----------------|
--7-----6---7---6---7--6--|--7-----6---7---6---7--6--|--0----------------|
--7-----7---7---7---7--7--|--7-----7---7---7---7--7--|--0----------------|
--0-----0---0---0---0--0--|--0-----0---0---0---0--0--|-------------------|
--------------------------|--------------------------|-------------------|


  Asus2               G                   Asus2
  ^                   ^                   ^                   ^
  W                   W                   W                   W
--0----------------|--3----------------|--0----------------|--2----------------|
--0----------------|--3----------------|--0----------------|--3----------------|
--2----------------|--0----------------|--2----------------|--2----------------|
--2----------------|--0----------------|--2----------------|--0----------------|
-------------------|-------------------|-------------------|-------------------|
-------------------|-------------------|-------------------|-------------------|


  ^                   ^                   ^                   ^
  W                   W                   W                   W
-------------------|-------------------|-------------------|--2----------------|
--3----------------|--0----------------|--0----------------|--3----------------|
--0----------------|--2----------------|--2----------------|--2----------------|
--0----------------|--2----------------|--2----------------|--0----------------|
--2----------------|--0----------------|--0----------------|-------------------|
--3----------------|-------------------|-------------------|-------------------|


  ^                   ^                   ^
  W                   W                   W
-------------------|-------------------|-------------------|
--3----------------|--0----------------|--0----------------|
--0----------------|--2----------------|--2----------------|
--0----------------|--2----------------|--2----------------|
--2----------------|--0----------------|--0----------------|
--3----------------|-------------------|-------------------|


  Asus2                      Asus2
  E.    E.  E.  E.  E  E     E.    E.  E.  E.  E  E
--0-----0---0---0---0--0--|--0-----0---0---0---0--0--|
--0-----0---0---0---0--0--|--0-----0---0---0---0--0--|
--7-----6---7---6---7--6--|--7-----6---7---6---7--6--|
--7-----7---7---7---7--7--|--7-----7---7---7---7--7--|
--0-----0---0---0---0--0--|--0-----0---0---0---0--0--|
--------------------------|--------------------------|


  Asus2                      Asus2
  E.    E.  E.  E.  E  E     E.    E.  E.  E.  E  E
--0-----0---0---0---0--0--|--0-----0---0---0---0--0--|
--0-----0---0---0---0--0--|--0-----0---0---0---0--0--|
--7-----6---7---6---7--6--|--7-----6---7---6---7--6--|
--7-----7---7---7---7--7--|--7-----7---7---7---7--7--|
--0-----0---0---0---0--0--|--0-----0---0---0---0--0--|
--------------------------|--------------------------|


  Asus2                      Asus2                      G
                                                        ^
  E.    E.  E.  E.  E  E     E.    E.  E.  E.  E  E     W
--0-----0---0---0---0--0--|--0-----0---0---0---0--0--|--3----------------|
--0-----0---0---0---0--0--|--0-----0---0---0---0--0--|--3----------------|
--7-----6---7---6---7--6--|--7-----6---7---6---7--6--|--0----------------|
--7-----7---7---7---7--7--|--7-----7---7---7---7--7--|--0----------------|
--0-----0---0---0---0--0--|--0-----0---0---0---0--0--|-------------------|
--------------------------|--------------------------|-------------------|


  Asus2               G                   Asus2
  ^                   ^                   ^                   ^
  W                   W                   W                   W
--0----------------|--3----------------|--0----------------|--2----------------|
--0----------------|--3----------------|--0----------------|--3----------------|
--2----------------|--0----------------|--2----------------|--2----------------|
--2----------------|--0----------------|--2----------------|--0----------------|
-------------------|-------------------|-------------------|-------------------|
-------------------|-------------------|-------------------|-------------------|


  ^                   ^                   ^                   ^
  W                   W                   W                   W
-------------------|-------------------|-------------------|--2----------------|
--3----------------|--0----------------|--0----------------|--3----------------|
--0----------------|--2----------------|--2----------------|--2----------------|
--0----------------|--2----------------|--2----------------|--0----------------|
--2----------------|--0----------------|--0----------------|-------------------|
--3----------------|-------------------|-------------------|-------------------|


  ^                   ^                   ^
  W                   W                   W                   W
-------------------|-------------------|-------------------|-------------------|
--3----------------|--0----------------|--0----------------|--0----------------|
--0----------------|--2----------------|--2----------------|--2----------------|
--0----------------|--2----------------|--2----------------|--2----------------|
--2----------------|--0----------------|--0----------------|--0----------------|
--3----------------|-------------------|-------------------|-------------------|


  W                   W                   W                   W
-------------------|-------------------|--1----------------|-------------------|
--3----------------|--3----------------|--1----------------|--0----------------|
--0----------------|--2----------------|--2----------------|--2----------------|
--0----------------|--0----------------|--3----------------|--2----------------|
--2----------------|--x----------------|--3----------------|--0----------------|
--3----------------|--2----------------|-------------------|-------------------|


  W                   W                   W                   W
-------------------|-------------------|--1----------------|-------------------|
--3----------------|--3----------------|--1----------------|--0----------------|
--0----------------|--2----------------|--2----------------|--2----------------|
--0----------------|--0----------------|--3----------------|--2----------------|
--2----------------|--x----------------|--3----------------|--0----------------|
--3----------------|--2----------------|-------------------|-------------------|


  W                   W                   W                   W
-------------------|-------------------|--1----------------|-------------------|
--3----------------|--3----------------|--1----------------|--0----------------|
--0----------------|--2----------------|--2----------------|--2----------------|
--0----------------|--0----------------|--3----------------|--2----------------|
--2----------------|--x----------------|--3----------------|--0----------------|
--3----------------|--2----------------|-------------------|-------------------|


  W                   W                   W                   W
-------------------|-------------------|--1----------------|-------------------|
--3----------------|--3----------------|--1----------------|-------------------|
--0----------------|--2----------------|--2----------------|-------------------|
--0----------------|--0----------------|--3----------------|-------------------|
--2----------------|--x----------------|--3----------------|-------------------|
--3----------------|--2----------------|-------------------|-------------------|


                                          Asus2
  W                   W                   E.    E.  E.  E.  E  E
-------------------|-------------------|--0-----0---0---0---0--0--|
-------------------|-------------------|--0-----0---0---0---0--0--|
-------------------|-------------------|--7-----6---7---6---7--6--|
-------------------|-------------------|--7-----7---7---7---7--7--|
-------------------|-------------------|--0-----0---0---0---0--0--|
-------------------|-------------------|--------------------------|


  Asus2                      Asus2
  E.    E.  E.  E.  E  E     E.    E.  E.  E.  E  E
--0-----0---0---0---0--0--|--0-----0---0---0---0--0--|
--0-----0---0---0---0--0--|--0-----0---0---0---0--0--|
--7-----6---7---6---7--6--|--7-----6---7---6---7--6--|
--7-----7---7---7---7--7--|--7-----7---7---7---7--7--|
--0-----0---0---0---0--0--|--0-----0---0---0---0--0--|
--------------------------|--------------------------|


  Asus2                      Asus2
  E.    E.  E.  E.  E  E     E.    E.  E.  E.  E  E
--0-----0---0---0---0--0--|--0-----0---0---0---0--0--|
--0-----0---0---0---0--0--|--0-----0---0---0---0--0--|
--7-----6---7---6---7--6--|--7-----6---7---6---7--6--|
--7-----7---7---7---7--7--|--7-----7---7---7---7--7--|
--0-----0---0---0---0--0--|--0-----0---0---0---0--0--|
--------------------------|--------------------------|


  Asus2                      Asus2
  E.    E.  E.  E.  E  E     E.    E.  E.  E.  E  E
--0-----0---0---0---0--0--|--0-----0---0---0---0--0--|
--0-----0---0---0---0--0--|--0-----0---0---0---0--0--|
--7-----6---7---6---7--6--|--7-----6---7---6---7--6--|
--7-----7---7---7---7--7--|--7-----7---7---7---7--7--|
--0-----0---0---0---0--0--|--0-----0---0---0---0--0--|
--------------------------|--------------------------|


  Asus2                      Asus2
  E.    E.  E.  E.  E  E     E.    E.  E.  E.  E  E
--0-----0---0---0---0--0--|--0-----0---0---0---0--0--|
--0-----0---0---0---0--0--|--0-----0---0---0---0--0--|
--7-----6---7---6---7--6--|--7-----6---7---6---7--6--|
--7-----7---7---7---7--7--|--7-----7---7---7---7--7--|
--0-----0---0---0---0--0--|--0-----0---0---0---0--0--|
--------------------------|--------------------------|


  Asus2                      G                   Asus2
                             ^                   ^
  E.    E.  E.  E.  E  E     W                   W
--0-----0---0---0---0--0--|--3----------------|--0----------------|
--0-----0---0---0---0--0--|--3----------------|--0----------------|
--7-----6---7---6---7--6--|--0----------------|--2----------------|
--7-----7---7---7---7--7--|--0----------------|--2----------------|
--0-----0---0---0---0--0--|-------------------|-------------------|
--------------------------|-------------------|-------------------|


  G                   Asus2               G                   Asus2
  ^                   ^                   ^                   ^
  W                   W                   W                   W
--3----------------|--0----------------|--3----------------|--0----------------|
--3----------------|--0----------------|--3----------------|--0----------------|
--0----------------|--2----------------|--0----------------|--2----------------|
--0----------------|--2----------------|--0----------------|--2----------------|
-------------------|-------------------|-------------------|-------------------|
-------------------|-------------------|-------------------|-------------------|


  G                   Asus2               G                   Asus2
  ^                   ^                   ^                   ^
  W                   W                   W                   W
--3----------------|--0----------------|--3----------------|--0----------------|
--3----------------|--0----------------|--3----------------|--0----------------|
--0----------------|--2----------------|--0----------------|--2----------------|
--0----------------|--2----------------|--0----------------|--2----------------|
-------------------|-------------------|-------------------|-------------------|
-------------------|-------------------|-------------------|-------------------|


  G                   Asus2               Asus2
  ^                   ^
  W                   W                   W
--3----------------|--5----------------|--L----------------||
--3----------------|--5----------------|--L----------------||
--0----------------|--6----------------|--L----------------||
--0----------------|--7----------------|--L----------------||
--2----------------|--7----------------|--L----------------||
-------------------|--5----------------|--L----------------||




Duration Legend
---------------
W - whole
H - half
Q - quarter
E - 8th
S - 16th
T - 32nd
X - 64th
. - note dotted
|-n-|  - n-tuplets


Tablature Legend
----------------
L - tied note
x - dead note
g - grace note
(n) - ghost note
> - accentuded note
NH - natural harmonic
AH - artificial harmonic
TH - tapped harmonic
SH - semi harmonic
PH - pitch harmonic
h - hammer on
p - pull off
b - bend
br - bendRelease
pb - preBend
pbr - preBendRelease
brb - bendReleaseBend
\n/ - tremolo bar dip
\n - tremolo bar dive
-/n - tremolo bar Release up
/n\ - tremolo bar inverted dip
/n - tremolo bar return
-\n - tremolo bar Release down
S - shift slide
s - legato slide
/ -  slide into from below or out of upwards
\ -  slide into from above or out of downwards
~ - vibrato
W - wide vibrato
tr - trill
TP - tremolo picking
T - tapping
S - slap
P - pop
< - fade in
^ - brush up
v - brush down





Comments


Popular Saigon Kick tabs & chords
Colors Bass Tabs
Cruelty Bass Tabs
What You Say Bass Tabs
All Alright Chords
All I Want Chords
Body Bags Tabs
Chanel Tabs
My Life Tabs
All I Want Ukulele
Sergeant Steve Ukulele


Song lyrics



↑ Back to top | Tablatures and chords are parodies/interpretations of the original songs. You may use it for private study, scholarship, research or language learning purposes only
© 2014 AZChords.com Contact us | Privacy policy | DMCA | Add/correct tabs | Request tabs | Top 50 tabs