>
 >
All I Want

All I Want Bass Tabs

Saigon Kick - All I Want chords, tabs, tablatures, lyrics

Guitar lessons | Add/correct | Request | Top 50 tabs Artists:  A B C D E F G H I J K L M N O P Q R S T U V W X Y Z 0-9

All I Want Bass Tabs – Saigon Kick

CD, Sheet music, Poster

Do you like All I Want? Share with your friends now
Bass TabsChordsTabsUkulele
-----------------------------------------------------------------------------
                       
-----------------------------------------------------------------------------

Tuning: Drop D (although you could get by with standard tuning)

=============================================================================


Bass
     W                   E  S E  S E  E  E  E  S S  
G||-------------------|----------------------------|
D||-------------------|---------------------7------|
A||-------------------|----------------------------|
D||-------------------|--7----7----7-----7--7--7---|


  E  S E  S E  E  E  E  S S    E  S E  S E  E  E  E  S S  
----------------------------|----------------------------|
---------------------7------|---------------------7------|
----------------------------|----------------------------|
--7----7----7-----7--7--7---|--7----7----7-----7--7--7---|


  E  S E  S E  E  E  E  S S    E  S E  S E  E  E  E  S S  
----------------------------|----------------------------|
---------------------7------|---------------------7------|
----------------------------|----------------------------|
--7----7----7-----7--7--7---|--7----7----7-----7--7--7---|


  E  S E  S E  E  E  E  S S    E  S E  S E  E  E  E  S S  
----------------------------|----------------------------|
---------------------7------|---------------------7------|
----------------------------|----------------------------|
--7----7----7-----7--7--7---|--7----7----7-----7--7--7---|


  E  S E  S E  E  E  E  S S    E  S E  S E  E  E  E  S S  
----------------------------|----------------------------|
---------------------7------|---------------------7------|
----------------------------|----------------------------|
--7----7----7-----7--7--7---|--7----7----7-----7--7--7---|


  E  S E  S E  E  E  E  S S    E  S E  S Q    Q    E   
----------------------------|-------------------------|
---------------------7------|-------------------------|
----------------------------|-------------------------|
--7----7----7-----7--7--7---|--5----5----5------------|


  E  S E  S Q    Q    E     E  S E  S Q    Q    E     E  S E  S Q    Q    E   
-------------------------|-------------------------|-------------------------|
-------------------------|-------------------------|-------------------------|
-------------------------|-------------------------|-------------------------|
--7----7----7------------|--5----5----5------------|--7----7----7------------|


  E  S E  S E  S S E  E  S S    E  S E  S E  E  E  E  S S  
-----------------------------|----------------------------|
----------------------7------|---------------------7------|
-----------------------------|----------------------------|
--7----7----7------7--7--7---|--7----7----7-----7--7--7---|


  E  S E  S E  E  E  E  S S    E  S E  S E  E  E  E  S S  
----------------------------|----------------------------|
---------------------7------|---------------------7------|
----------------------------|----------------------------|
--7----7----7-----7--7--7---|--7----7----7-----7--7--7---|


  E  S E  S E  E  E  E  S S    E  S E  S E  E  E  E  S S  
----------------------------|----------------------------|
---------------------7------|---------------------7------|
----------------------------|----------------------------|
--7----7----7-----7--7--7---|--7----7----7-----7--7--7---|


  E  S E  S Q    Q    E     E  S E  S Q    E  E  S S    E  S E  S Q    Q    E   
-------------------------|---------------------------|-------------------------|
-------------------------|---------------------------|-------------------------|
-------------------------|---------------------------|-------------------------|
--5----5----5------------|--7----7----7--------------|--5----5----5------------|


  E  S E  S Q    Q    E     H.           Q       Q.     Q.     Q     
-------------------------|--------------------|---------------------|
-------------------------|--------------------|---------------------|
-------------------------|--5-----------------|---------------------|
--7----7----7------------|---------------4----|--5------4------5----|


  E.  E.  Q.     Q       E.  E.  Q.     Q       H.           Q     
----------------------|----------------------|--------------------|
----------------------|----------------------|--------------------|
--0---0---0------0----|--0---0---0------0----|--5-----------------|
----------------------|----------------------|---------------4----|


  Q.     Q.     Q       E.  E.  Q.     Q       E.  E.  Q.     Q     
---------------------|----------------------|----------------------|
---------------------|----------------------|----------------------|
---------------------|--0---0---0------0----|--0---0---0------0----|
--5------4------5----|----------------------|----------------------|


  E  S E  S E  E  E  E  S S    E  S E  S E  E  E  E  S S  
----------------------------|----------------------------|
---------------------7------|---------------------7------|
----------------------------|----------------------------|
--7----7----7-----7--7--7---|--7----7----7-----7--7--7---|


  E  S E  S E  E  E  E  S S    E  S E  S E  E  E  E  S S  
----------------------------|----------------------------|
---------------------7------|---------------------7------|
----------------------------|----------------------------|
--7----7----7-----7--7--7---|--7----7----7-----7--7--7---|


  E  S E  S E  E  E  E  S S    E  S E  S E  E  E  E  S S  
----------------------------|----------------------------|
---------------------7------|---------------------7------|
----------------------------|----------------------------|
--7----7----7-----7--7--7---|--7----7----7-----7--7--7---|


  E  S E  S Q    Q    E     E  S E  S Q    Q    E     E  S E  S Q    Q    E   
-------------------------|-------------------------|-------------------------|
-------------------------|-------------------------|-------------------------|
-------------------------|-------------------------|-------------------------|
--5----5----5------------|--7----7----7------------|--5----5----5------------|


  E  S E  S Q    Q    E     H.           Q       Q.     Q.     Q     
-------------------------|--------------------|---------------------|
-------------------------|--------------------|---------------------|
-------------------------|--5-----------------|---------------------|
--7----7----7------------|---------------4----|--5------4------5----|


  E.  E.  Q.     Q       E.  E.  Q.     Q       H.           Q     
----------------------|----------------------|--------------------|
----------------------|----------------------|--------------------|
--0---0---0------0----|--0---0---0------0----|--5-----------------|
----------------------|----------------------|---------------4----|


  Q.     Q.     Q       E.  E.  Q.     Q       E.  E.  Q.     Q     
---------------------|----------------------|----------------------|
---------------------|----------------------|----------------------|
---------------------|--0---0---0------0----|--0---0---0------0----|
--5------4------5----|----------------------|----------------------|


  E  S E  S H        S S    E  S E  S H        S S    E  S E  S H        S S  
-------------------------|-------------------------|-------------------------|
-------------------------|-------------------------|-------------------------|
-------------------------|-------------------------|-------------------------|
--7----7----7--------2---|--5----5----5--------2---|--4----4----4--------2---|


  E  S E  S H        E     E  S E  S H        S S    E  S E  S H        S S  
------------------------|-------------------------|-------------------------|
------------------------|-------------------------|-------------------------|
------------------------|-------------------------|-------------------------|
--3----3----3-----------|--7----7----7--------2---|--5----5----5--------2---|


  E  S E  S H        S S    E  S E  S H        E     E  S E  S H        S S  
-------------------------|------------------------|-------------------------|
-------------------------|------------------------|-------------------------|
-------------------------|------------------------|-------------------------|
--4----4----4--------2---|--3----3----3-----------|--7----7----7--------2---|


  E  S E  S H        S S    E  S E  S H        S S    E  S E  S H        E   
-------------------------|-------------------------|------------------------|
-------------------------|-------------------------|------------------------|
-------------------------|-------------------------|------------------------|
--5----5----5--------2---|--4----4----4--------2---|--3----3----3-----------|


  E  S E  S H        S S    E  S E  S H        S S    E  S E  S H        S S  
-------------------------|-------------------------|-------------------------|
-------------------------|-------------------------|-------------------------|
-------------------------|-------------------------|-------------------------|
--7----7----7--------2---|--5----5----5--------2---|--4----4----4--------2---|


  W                   W                   W                   W                 
-------------------|-------------------|-------------------|-------------------|
-------------------|-------------------|-------------------|-------------------|
-------------------|-------------------|-------------------|-------------------|
--3----------------|-------------------|-------------------|-------------------|


  W                   W                   W                   W                 
-------------------|-------------------|-------------------|-------------------|
-------------------|-------------------|-------------------|-------------------|
-------------------|-------------------|-------------------|-------------------|
-------------------|-------------------|-------------------|-------------------|


  E  S E  S E  E  E  E  S S    E  S E  S E  E  E  E  S S  
----------------------------|----------------------------|
---------------------7------|---------------------7------|
----------------------------|----------------------------|
--7----7----7-----7--7--7---|--7----7----7-----7--7--7---|


  E  S E  S E  E  E  E  S S    E  S E  S E  E  E  E  S S  
----------------------------|----------------------------|
---------------------7------|---------------------7------|
----------------------------|----------------------------|
--7----7----7-----7--7--7---|--7----7----7-----7--7--7---|


  E  S E  S E  E  E  E  S S    E  S E  S E  E  E  E  S S  
----------------------------|----------------------------|
---------------------7------|---------------------7------|
----------------------------|----------------------------|
--7----7----7-----7--7--7---|--7----7----7-----7--7--7---|


  E  S E  S Q    Q    E     E  S E  S Q    Q    E     E  S E  S Q    Q    E   
-------------------------|-------------------------|-------------------------|
-------------------------|-------------------------|-------------------------|
-------------------------|-------------------------|-------------------------|
--5----5----5------------|--7----7----7------------|--5----5----5------------|


  E  S E  S Q    Q    E     E  S E  S Q    Q    E     E  S E  S Q    Q    E   
-------------------------|-------------------------|-------------------------|
-------------------------|-------------------------|-------------------------|
-------------------------|-------------------------|-------------------------|
--7----7----7------------|--5----5----5------------|--7----7----7------------|


  E  S E  S Q    Q    E     W                                           
-------------------------|-------------------|----|----|----|----|----||
-------------------------|-------------------|----|----|----|----|----||
-------------------------|-------------------|----|----|----|----|----||
--5----5----5------------|--7----------------|----|----|----|----|----||




Duration Legend
---------------
W - whole
H - half
Q - quarter
E - 8th
S - 16th
T - 32nd
X - 64th
. - note dotted
|-n-|  - n-tuplets


Tablature Legend
----------------
L - tied note
x - dead note
g - grace note
(n) - ghost note
> - accentuded note
NH - natural harmonic
AH - artificial harmonic
TH - tapped harmonic
SH - semi harmonic
PH - pitch harmonic
h - hammer on
p - pull off
b - bend
br - bendRelease
pb - preBend
pbr - preBendRelease
brb - bendReleaseBend
\n/ - tremolo bar dip
\n - tremolo bar dive
-/n - tremolo bar Release up
/n\ - tremolo bar inverted dip
/n - tremolo bar return
-\n - tremolo bar Release down
S - shift slide
s - legato slide
/ -  slide into from below or out of upwards
\ -  slide into from above or out of downwards
~ - vibrato
W - wide vibrato
tr - trill
TP - tremolo picking
T - tapping
S - slap
P - pop
< - fade in
^ - brush up
v - brush down





Comments


Popular Saigon Kick tabs & chords
Colors Bass Tabs
Come Take Me Now Bass Tabs
Hostile Youth Bass Tabs
Love Is On The Way Bass Tabs
All Alright Chords
I Love You Chords
All I Want Tabs
Cruelty Tabs
Love Of God Tabs
My Life 1 Tabs


Song lyrics



↑ Back to top | Tablatures and chords are parodies/interpretations of the original songs. You may use it for private study, scholarship, research or language learning purposes only
© 2014 AZChords.com Contact us | Privacy policy | DMCA | Add/correct tabs | Request tabs | Top 50 tabs