» » »

Safetysuit, Stay Tabs (ver.1)

Artists:  A B C D E F G H I J K L M N O P Q R S T U V W X Y Z # 

Stay Tabs (ver.1)

Safetysuit Tabs
 Rating:
4.4/5 (7 votes)
Stay lessons Tabs too difficult? Try these video lessons and learn fast
1
                Alright...this is my first tab...the feedback so far is positive
Keep it coming! i like to know how i'm doing...i just corrected the chorus in case 
was having trouble...if anybody has tabs to the verse PLEASE give them to me i only have the 
will credit you in the tab


Intro
e|--------------------------------------------|
B|--------------------------------------------|
G|-----------------------------121212111111---| (x2)
D|--9-7-9~~~9-7-9/12\9~9-7-9---------------12-|
A|---------------------------10---------------|
E|--------------------------------------------|

Verse is just a progression through the chords:
G, C, G, C, Am, C(barre chord at 8th fret)


Chorus

|-------------------------------------------------------------------|
|------------------------------------------------12-----------12----|
|-12-12-12\11-11-11-11-12-12-12\11-11-11-11---------12-----------12-|
|------------------------------------------/14-14------/14-14-------|
|-10-10-10\-9--9--9--9-10-10-10\-9--9--9--9-------------------------|
|-------------------------------------------------------------------|

|-----------------------------------------------------------------|
|----------------------------------------------12-----------12----|
|-12-12-12\11-11-11-11-12-12-1212/14\11-----------12-----------12-|
|---------------------------------------/14-14-------/14-14-------|
|-10-10-10\-9--9--9--9-10-10-1010/12\9----------------------------|
|-----------------------------------------------------------------|

Second verse is the same as first but adds Distorted Em

solo
|--------------------------------------151515141414---|
|-12-10-12~~12-10-12/15\12~~12-10-12---------------15-|
|------------------------------------12---------------| (x2)
|-----------------------------------------------------|
|-----------------------------------------------------|
|-----------------------------------------------------|


 interlude (Just Keep repeating until final chorus)
|--------------------------------------------------|
|--13-13-13-12-12-12-------------------------------|
|--------------------12-12-12----------------------|
|-----------------------------12-12-12-12-12-12-12-|
|--------------------------------------------------|
|--------------------------------------------------|

Order
Intro
Verse 1
Chorus
Verse 2
Chorus
Solo
interlude
Chorus
Solo
            
Submit corrections

comments powered by Disqus
↑ Back to top | Safetysuit Tabs for Stay. Lyrics for acoustic guitar and electric guitar. 1 Tablatures and chords are parodies/interpretations of the original songs. You may use it for private study, scholarship, research or language learning purposes only