>
 >
Stay 1

Stay 1 Guitar Tabs

Safetysuit - Stay 1 chords, tabs, tablatures, lyrics

Guitar lessons | Add/correct | Request | Top 50 tabs Artists:  A B C D E F G H I J K L M N O P Q R S T U V W X Y Z 0-9

Stay 1 Guitar Tabs – Safetysuit

CD, Sheet music, Poster

Do you like Stay 1? Share with your friends now
ChordsChords v2Chords v3TabsTabs v2Ukulele
This is my first full tab/chords song i wrote out. I'm a beginner so if its not accurate 
lemme know.

The Strumming pattern for the song is D D U DUDUD D DUD (or similar to that..)

Also, if you want, you can re-arrange your strumming pattern and strum however you want, 
Your choice. :)

More than one way to kill a cat >;)

Intro:
e|------------------------------------------------------------------|
B|------------------------------------------------------------------|
G|-------------------------------------------12-12-12-11-11-11------|
D|9-7-9---9-7-9--9-7-9/12\9-9--9-7-9--9-7----------------------12---|
A|----------------------------------------10------------------------|
E|------------------------------------------------------------------|X2
Note: If you choose, you can use the vibrator technique other people used.
      I don't use it. This is only a simpler version.

   G                                Cadd9
e|-3---3---3-3-3-3-3---3--3-3-3---|-0---0--0-0-0-0-0---0---0-0-0----|
B|-0---0---0-0-0-0-0---0--0-0-0---|-3---3--3-3-3-3-3---3---3-3-3----|
G|-0---0---0-0-0-0-0---0--0-0-0---|-0---0--0-0-0-0-0---0---0-0-0----|
D|-0---0---0-0-0-0-0---0--0-0-0---|-0---0--0-0-0-0-0---0---0-0-0----|
A|-2---2---2-2-2-2-2---2--2-2-2---|-2---2--2-2-2-2-2---2---2-2-2----|
E|-3---3---3-3-3-3-3---3--3-3-3-x2|-3---3--3-3-3-3-3---3---3-3-3--x2|
G
Walking out the door this morning,Wandering what it is that's going
Cadd9
On with you (on with you)

   G                                Cadd9
e|-3---3---3-3-3-3-3---3--3-3-3---|-0---0--0-0-0-0-0---0---0-0-0----|
B|-0---0---0-0-0-0-0---0--0-0-0---|-3---3--3-3-3-3-3---3---3-3-3----|
G|-0---0---0-0-0-0-0---0--0-0-0---|-0---0--0-0-0-0-0---0---0-0-0----|
D|-0---0---0-0-0-0-0---0--0-0-0---|-0---0--0-0-0-0-0---0---0-0-0----|
A|-2---2---2-2-2-2-2---2--2-2-2---|-2---2--2-2-2-2-2---2---2-2-2----|
E|-3---3---3-3-3-3-3---3--3-3-3-x2|-3---3--3-3-3-3-3---3---3-3-3--x2|

G
Thinking of a way to say I'm sorry for something that I'm not
Cadd9
Sure i do (sure i do)

   E7                        Cadd9
e|-0---0---0-0-0-0-0--0-0---|-0---0---0-0-0-0-0--0-0-|
B|-1---1---1-1-1-1-1--1-1---|-3---3---3-3-3-3-3--3-3-|
G|-0---0---0-0-0-0-0--0-0---|-0---0---0-0-0-0-0--0-0-|
D|-2---2---2-2-2-2-2--2-2---|-0---0---0-0-0-0-0--0-0-|
A|-0---0---0-0-0-0-0--0-0---|-2---2---2-2-2-2-2--2-2-|
E|-0---0---0-0-0-0-0--0-0---|-3---3---3-3-3-3-3--3-3-|
Note: I play my E7 like that, it may not be correct but it gives it that
      Smooth pitch tone from the song.
E7
So come on baby let me in and
Cadd9
Show me what this really is cuz...

Chorus:
   G                                   Cadd9                      E7
e|-3--3--3-3-3-3-3--3--3-3-3---3--3-3-|0---0--0-0-0-0-0--0--0-0-|-0---0--0-0-0-0-0--0--0-0-|
B|-0--0--0-0-0-0-0--0--0-0-0---0--0-0-|3---3--3-3-3-3-3--3--3-3-|-1---1--1-1-1-1-1--1--1-1-|
G|-0--0--0-0-0-0-0--0--0-0-0---0--0-0-|0---0--0-0-0-0-0--0--0-0-|-0---0--0-0-0-0-0--0--0-0-|
D|-0--0--0-0-0-0-0--0--0-0-0---0--0-0-|0---0--0-0-0-0-0--0--0-0-|-2---2--2-2-2-2-2--2--2-2-|
A|-2--2--2-2-2-2-2--2--2-2-2---2--2-2-|2---2--2-2-2-2-2--2--2-2-|-0---0--0-0-0-0-0--0--0-0-|
E|-3--3--3-3-3-3-3--3--3-3-3---3--3-3-|3---3--3-3-3-3-3--3--3-3-|-0---0--0-0-0-0-0--0--0-0-|x2
G
Something must have made you say that, what did I
Cadd9
Do to make you
E7
Say that to me
G
Something must have made you so mad, what can i
Cadd9
Do to make you
E7
Say come back to me

   G                                Cadd9
e|-3---3---3-3-3-3-3---3--3-3-3---|-0---0--0-0-0-0-0---0---0-0-0----|
B|-0---0---0-0-0-0-0---0--0-0-0---|-3---3--3-3-3-3-3---3---3-3-3----|
G|-0---0---0-0-0-0-0---0--0-0-0---|-0---0--0-0-0-0-0---0---0-0-0----|
D|-0---0---0-0-0-0-0---0--0-0-0---|-0---0--0-0-0-0-0---0---0-0-0----|
A|-2---2---2-2-2-2-2---2--2-2-2---|-2---2--2-2-2-2-2---2---2-2-2----|
E|-3---3---3-3-3-3-3---3--3-3-3-x2|-3---3--3-3-3-3-3---3---3-3-3--x2|
G
Hoping for a moment that i, turn around and you'd be coming
Cadd9
After me (after me)

   G                                Cadd9
e|-3---3---3-3-3-3-3---3--3-3-3---|-0---0--0-0-0-0-0---0---0-0-0----|
B|-0---0---0-0-0-0-0---0--0-0-0---|-3---3--3-3-3-3-3---3---3-3-3----|
G|-0---0---0-0-0-0-0---0--0-0-0---|-0---0--0-0-0-0-0---0---0-0-0----|
D|-0---0---0-0-0-0-0---0--0-0-0---|-0---0--0-0-0-0-0---0---0-0-0----|
A|-2---2---2-2-2-2-2---2--2-2-2---|-2---2--2-2-2-2-2---2---2-2-2----|
E|-3---3---3-3-3-3-3---3--3-3-3-x2|-3---3--3-3-3-3-3---3---3-3-3--x2|
G
But all that i can say is that its obvious, its obvious your
Cadd9
All i see (all i see)

   E7                        Cadd9
e|-0---0---0-0-0-0-0--0-0---|-0---0---0-0-0-0-0--0-0-|
B|-1---1---1-1-1-1-1--1-1---|-3---3---3-3-3-3-3--3-3-|
G|-0---0---0-0-0-0-0--0-0---|-0---0---0-0-0-0-0--0-0-|
D|-2---2---2-2-2-2-2--2-2---|-0---0---0-0-0-0-0--0-0-|
A|-0---0---0-0-0-0-0--0-0---|-2---2---2-2-2-2-2--2-2-|
E|-0---0---0-0-0-0-0--0-0---|-3---3---3-3-3-3-3--3-3-|
E7
So come on baby let me in and
Cadd9
Show me what this really is
   Em
e|-0---0--0-0-0-0-0---0--0--0--0---0-|
B|-0---0--0-0-0-0-0---0--0--0--0---0-|
G|-0---0--0-0-0-0-0---0--0--0--0---0-|
D|-2---2--2-2-2-2-2---2--2--2--2---2-|
A|-2---2--2-2-2-2-2---2--2--2--2---2-|
E|-0---2--2-2-2-2-2---2--2--2--2---2-|x2
Em
About, cuz i can't read you
   E7                        Cadd9
e|-0---0---0-0-0-0-0--0-0---|-0---0---0-0-0-0-0--0-0-|
B|-1---1---1-1-1-1-1--1-1---|-3---3---3-3-3-3-3--3-3-|
G|-0---0---0-0-0-0-0--0-0---|-0---0---0-0-0-0-0--0-0-|
D|-2---2---2-2-2-2-2--2-2---|-0---0---0-0-0-0-0--0-0-|
A|-0---0---0-0-0-0-0--0-0---|-2---2---2-2-2-2-2--2-2-|
E|-0---0---0-0-0-0-0--0-0---|-3---3---3-3-3-3-3--3-3-|
E7
So come on baby let me in and
Cadd9
Show me what this really is

Repeat Chorus
   G                                   Cadd9                      E7
e|-3--3--3-3-3-3-3--3--3-3-3---3--3-3-|0---0--0-0-0-0-0--0--0-0-|-0---0--0-0-0-0-0--0--0-0-|
B|-0--0--0-0-0-0-0--0--0-0-0---0--0-0-|3---3--3-3-3-3-3--3--3-3-|-1---1--1-1-1-1-1--1--1-1-|
G|-0--0--0-0-0-0-0--0--0-0-0---0--0-0-|0---0--0-0-0-0-0--0--0-0-|-0---0--0-0-0-0-0--0--0-0-|
D|-0--0--0-0-0-0-0--0--0-0-0---0--0-0-|0---0--0-0-0-0-0--0--0-0-|-2---2--2-2-2-2-2--2--2-2-|
A|-2--2--2-2-2-2-2--2--2-2-2---2--2-2-|2---2--2-2-2-2-2--2--2-2-|-0---0--0-0-0-0-0--0--0-0-|
E|-3--3--3-3-3-3-3--3--3-3-3---3--3-3-|3---3--3-3-3-3-3--3--3-3-|-0---0--0-0-0-0-0--0--0-0-|x2
G
Something must have say that, what did I
Cadd9
Do, to make you
E7
Say that to me
G
Something must have made you so mad, what can I
Cadd9
Do, to make you
E7
Come back to me
Solo:
e|------------------------------------------------------------------|
B|------------------------------------------------------------------|
G|-------------------------------------------12-12-12-11-11-11------|
D|9-7-9~~-9-7-9--9-7-9/12\9-9--9-7-9--9-7----------------------12---|
A|----------------------------------------10------------------------|
E|------------------------------------------------------------------|X2

         G
And i'll be here in the morning if you say
Cadd9
Stay. If you
G                 Cadd9
Say stay to me Oh
         G
And i'll be here in the morning if you say
Cadd9
Stay. If you
G                 Cadd9
Say stay to me Oh
         G
And i'll be here in the morning if you say
Cadd9
Stay. If you
G
Say stay to me Oh
Note: Strum lightly for the the first 2 parts then pick up a lil bit more
      speed on the 3rd part

Chorus:
   G                                   Cadd9                      E7
e|-3--3--3-3-3-3-3--3--3-3-3---3--3-3-|0---0--0-0-0-0-0--0--0-0-|-0---0--0-0-0-0-0--0--0-0-|
B|-0--0--0-0-0-0-0--0--0-0-0---0--0-0-|3---3--3-3-3-3-3--3--3-3-|-1---1--1-1-1-1-1--1--1-1-|
G|-0--0--0-0-0-0-0--0--0-0-0---0--0-0-|0---0--0-0-0-0-0--0--0-0-|-0---0--0-0-0-0-0--0--0-0-|
D|-0--0--0-0-0-0-0--0--0-0-0---0--0-0-|0---0--0-0-0-0-0--0--0-0-|-2---2--2-2-2-2-2--2--2-2-|
A|-2--2--2-2-2-2-2--2--2-2-2---2--2-2-|2---2--2-2-2-2-2--2--2-2-|-0---0--0-0-0-0-0--0--0-0-|
E|-3--3--3-3-3-3-3--3--3-3-3---3--3-3-|3---3--3-3-3-3-3--3--3-3-|-0---0--0-0-0-0-0--0--0-0-|x2
G
Something must have made you say that, what did I
Cadd9
Do to make you
E7
Say that to me
G
Something must have made you so mad, what can i
Cadd9
Do to make you
E7
Say come back to me

This is one of my favorite song from their band, really great to sing along too.
Once again, this tab format is for beginners who wanna know this song. Not 100% correct 
but it gives an understanding of the song





Comments


Popular Safetysuit tabs & chords
Anywhere But Here Chords
Never Stop 3 Chords
Stay 2 Chords
What If Chords
Anywhere But Here Tabs
Annie Ukulele
Find A Way Ukulele
Gone Away Ukulele
Life In The Pain Ukulele
What If Ukulele


Song lyrics



↑ Back to top | Tablatures and chords are parodies/interpretations of the original songs. You may use it for private study, scholarship, research or language learning purposes only
© 2014 AZChords.com Contact us | Privacy policy | DMCA | Add/correct tabs | Request tabs | Top 50 tabs