>
 >
Yyz 2

Yyz 2 Bass Tabs

Rush - Yyz 2 chords, tabs, tablatures, lyrics

Guitar lessons | Add/correct | Request | Top 50 tabs Artists:  A B C D E F G H I J K L M N O P Q R S T U V W X Y Z 0-9

Yyz 2 Bass Tabs – Rush

CD, Sheet music, Poster

Do you like Yyz 2? Share with your friends now
Bass TabsBass Tabs v2Bass Tabs v3Drum TabsTabsTabs v2Tabs v3
Tuning-Standard

Intro
G --5---5-5-5---5-5-5-5------------------------------------------|
D ----4-------4---------44---------------------------------------|  x8
A ---------------------------------------------------------------|
E ---------------------------------------------------------------|

G ------------------------------------------------------------|
D ------------------------------------------------------------|
A --3---3-3-3----3--3-3-3---3-3-3-3---------------------------|
E ----2-------22----------------------------------------------|

Fast Part

G -------------------898---------------------775754-----------|
D ----------68-10/11-----9-10----10-9---------------754-4/----|
A ------679--------------------------10-9---------------------|
E --889-------------------------------------------------------|

Verse

G -22---2---------22---2------------------------------------|
D ----4---4-22-------4---4-22-------------------------------|  x2
A ------------4----------------2-4--------------------------|
E ---------------------------------2------------------------|

G --55---5---------55---5-------------55---5----------55---5----------------|
D -----7---7-55-------7---7-55-----------7---7-55--------7---7-5----55--5---|
A --------------7--------------5-7----------------7--------------7-----7--7-|
E ---------------------------------5----------------------------------------|

Then all of it

second time substitute this for last five notes

G -----------|
D -----------|
A --5-7------|
E ------5----|

Verse Part 2

G -------2--------22-2-2----------2h4--------22---2-2----------------|
D ------------------4----4----------------------4-----4--------------|
A -2-4------2-4-------------2-4--------2-4---------------------------|
E -----2--------2---------------2----------2-------------------------|

G ------5/7-5-7-----7-55-5-5-------5/7-5-7/9-7-5--4-555--------------|
D ----5-----------5-----7---7----5---------------------75--55-55-----|
A --3-----------3--------------3--------------------------7--7--7----|
E -------------------------------------------------------------------|

G --------2--------22-2-2--------2h4-------22-2-2--------------------|
D -------------------4----4------------------4----4------------------|
A --2-4------2-4------------2-4------2-4-----------------------------|
E ------2--------2-------------2---------2---------------------------|

G ------5-5/7-5-----7-55-5-5-------5/7-5--54542----------------------|
D ----5-----------5-----7----7---5--------------542------------------|
A --3-----------3--------------3-------------------2-----------------|
E -------------------------------------------------------------------|

Solo Parts

G --------22-2-2------------22-2-2---------5/7-5-5/7-----------------|
D ----------4----4------------4----4-----5---------------------------|
A --2-4---------------2-4--------------3-----------------------------|
E ------2-----------------2------------------------------------------|

First Bass Solo

G --9p7----11p9-----12--12/14----|
D ------10------10------12/14----|
A -------------------------------|
E -------------------------------|

G --------22-2-2h4---------22-2-2--------5/7-5-7-5------------------|
D ----------4----------------4----4----5----------------------------|
A --2-4--------------2-4-------------3------------------------------|
E ------2----------------2------------------------------------------|

Drum Solo 1

Then

G --------44--2-2-2h4--------44---2-------------5/7-5-7--------------|
D ----------4-------------------4---4-2-0-----5----------------------|
A --2-4----------------2-4------------------3------------------------|
E ------2------------------2-----------------------------------------|

Second Bass Solo (Very Fast)

G --4/5--75--5----4/5--5---------------------------------------------|
D ------7--7---7------7--7-6-5---------------------------------------|
A -------------------------------------------------------------------|
E -------------------------------------------------------------------|

G --------22----------------22---------------5/7-5-7-----------------|
D -----------44-22-4-----------44-22-4-----5-------------------------|
A --2-4---------------2-4----------------3---------------------------|
E ------2-----------------2------------------------------------------|

Drum Solo 2

Then

G -------44---22---------44---22-------5/7-5---7-5------------------|
D ---------4----4----------4----4----5-------7----------------------|
A --2-4------------2-4-------------3--------------------------------|
E ------------------------------------------------------------------|

Third Bass Solo
                                                             harmonics
G ---------------------12-11--------14/16\14-12-11h12p11------5-4---|
D --------------12-14--------14-12-----------------------12---5-4---|
A -----12-14-15-----------------------------------------------------|
E --12--------------------------------------------------------------|

G --------22-2-2----------22---2-2--------5/7-5-7-5-----------------|
D ----------4----4-----------4-----4----5---------------------------|
A --2-4-------------2-4---------------3-----------------------------|
E ------2---------------2-------------------------------------------|

Drum Solo 3

Guitar Solo

G -------------------------------------------------------------|
D ----4----4------4----4-------5----5----/9-7-5-4-5-4-2-0------|
A -2----22---2-2----22---2--3----33---3------------------------|  x 4
E -------------------------------------------------------------|

fourth time leave out last 8 notes and rest

Synth Part

Hit open A string throughout it figure out timing

After that repeat verse parts 1 and 2 in their entirety

Outro

G --------------------------------------------------------------|
D ------------------------420-----------------------------------|
A --3-3---3-3-3---------------2---------------------------------|
E ------2-------2~~~--------------------------------------------|

Please enjoy this tab
it is about 99% accurate





Comments


Popular Rush tabs & chords
Cygnus Bass Tabs
Lock And Key Bass Tabs
Stick It Out Bass Tabs
The Anarchist Bass Tabs
The Pass Bass Tabs
Virtuality Drum Tabs
Bastille Day 1 Tabs
Different Strings Tabs
Half The World Tabs
Headlong Flight Tabs


Song lyrics



↑ Back to top | Tablatures and chords are parodies/interpretations of the original songs. You may use it for private study, scholarship, research or language learning purposes only
© 2014 AZChords.com Contact us | Privacy policy | DMCA | Add/correct tabs | Request tabs | Top 50 tabs