>
 >
Yyz

Yyz Bass Tabs

Rush - Yyz chords, tabs, tablatures, lyrics

Guitar lessons | Add/correct | Request | Top 50 tabs Artists:  A B C D E F G H I J K L M N O P Q R S T U V W X Y Z 0-9

Yyz Bass Tabs – Rush

CD, Sheet music, Poster

Do you like Yyz? Share with your friends now
Bass TabsBass Tabs v2Bass Tabs v3Drum TabsTabsTabs v2Tabs v3
Here is a great song for any instrument. This is just the bass tab. I couldn't find the
correct tab on the internet, just many different ones that had correct parts. So i
many different tabs including some I found in the song to make this tab. Correct me if 
wrong at some parts but I'm close to positive it is 99% correct....for legal purposes.


Standard Tuning

Intro

G --5---5-5-5---5-5-5-5------------------------------------------|
D ----4-------4---------44---------------------------------------|  x8
A ---------------------------------------------------------------|
E ---------------------------------------------------------------|

G ------------------------------------------------------------|
D ------------------------------------------------------------|
A --3---3-3-3----3--3-3-3---3-3-3-3---------------------------|
E ----2-------22----------------------------------------------|

G ----------------6898-------------------------|
D ------------679-------910-------9/10-9-------|
A --------679----------------------------10-9--|
E ----889--------------------------------------|

G ------------------------------|
D ---121212101210-9---------12\-|
A ------------------1210-9------|
E ------------------------------|

Verse 1

G -22---2--------22---2--------------22---2--------22---2-------------|
D ----4---432------4---4-2--------------4---432------4---4-2----------|
A ------------4------------432-4----------------4------------432-4----|
E --------------------------------2---------------------------------2-|

G -55---5--------55---5-------------|
D ----7---765-------7---7-5---------|
A -----------7-------------765-7----|
E --------------------------------5-|

G -55---5--------55---5------------------|
D ----7---765-------7---765---55---55----|
A ------------7-------------7----7----7--|
E ---------------------------------------|

G -22---2--------22---2--------------22---2--------22---2-------------|
D ----4---432------4---4-2--------------4---432------4---4-2----------|
A ------------4------------432-4----------------4------------432-4----|
E --------------------------------2---------------------------------2-|

G -55---5--------55---5--------------|
D ----7---765-------7---7-5----------|
A ------------7-------------765-7----|
E ---------------------------------5-|

G -55---5--------55---5-------------------|
D ----7---765-------7---7-5---------------|
A ------------7-------------765-7---------|
E --------------------------------5-------|

Verse 2
                                   *
G -------2--------22-2-2----------2h4--------22-2-2----------------|
D ------------------4----4---------------------4----4--------------|
A -2-4------2-4-------------2-4--------2-4-------------------------|
E -----2--------2---------------2----------2-----------------------|

G ------5/7-5-7-----7-55-5-5-------7-5-9-7-5-45-5----------------|
D ----5-----------5-----7---7----5-------------7-765-74-55-------|
A --3-----------3--------------3--------------------7--7--7------|
E ---------------------------------------------------------------|
                                  *
G --------2--------22-2-2--------2h4-------22-2-2--------------------|
D -------------------4----4------------------4----4------------------|
A --2-4------2-4------------2-4------2-4-----------------------------|
E ------2--------2-------------2---------2---------------------------|

G ------5-5/7-5-----7-55-5-5-------5/7-5-7---5-4-5-4-2---------------|
D ----5-----------5-----7----7---5---------------------5-4-2---------|
A --3-----------3--------------3-------------------------------------|
E -------------------------------------------------------------------|

G --------22-2-2------------22-2-2---------5/7-5-5/7-----------------|
D ----------4----4------------4----4-----5---------------------------|
A --2-4---------------2-4--------------3-----------------------------|
E ------2-----------------2------------------------------------------|

Bass Solo 1

G --9p7----11p9-----12--12/14----|
D ------10------10------12/14----|
A -------------------------------|
E -------------------------------|

G --------22-2-2h4---------22-2-2--------7-5-5-75-5----------------|
D ----------4----------------4----4----5---------75-----------------|
A --2-4--------------2-4-------------3------------------------------|
E ------2----------------2------------------------------------------|

Drum Solo 1

G --------22-2-2h4---------22-2-2--------7-5-7---------------|
D ----------4----------------4----4----5---------------------|
A --2-4--------------2-4-------------3-----------------------|
E ------2----------------2-----------------------------------|

Bass Solo 2

G -5-75-5-45-5----------|
D ---6--7-7--7-765-------|
A -----------------------|
E -----------------------|

G --------2----------------2--------------5/7-5---7-5-------------|
D -----------4-2-4------------4-2-4-----5-------7-----------------|
A --2-4--------------2-4--------------3---------------------------|
E ------2----------------2----------------------------------------|

Drum Solo 2

G ---------------22-------------22---------7-5---7-|
D -12\----------4---4----------4---4-----5-----7---|
A ------2-4-----------2-4------------3-----------|
E -----------2--------------2----------------------|

Bass Solo 3
                                                   harmonics
G --------------12\11-------14/16-14-12-11h12p11-----5-----|
D ----------1214-----1412-----------------------12---5-9---|
A ----121415-------------------------------------------9---|
E --12-----------------------------------------------------|

G --------22-2-2-----------22-2-2---------7-5-5575-5----------|
D ----------4----4-----------4----4-----5---------7-----------|
A --2-4--------------2-4--------------3-----------------------|
E ------2----------------2------------------------------------|

Drum Solo 3

G ----------------------------------------------9-7-5-4-5-4-2-0--|
D -----------44-4---------44-4---------5---7-5-------------------|
A ---0--2--2---2-2---2--2---2-2---3--3---3-----------------------|
E ---------------------------------------------------------------|

G ----------------------------------------------9-7-5-4-5----------|
D -----------44-4---------44-4---------5---7-5------------55755-5--|
A ------2--2---2-2---2--2---2-2---3--3---3---------------------7-7-|
E -----------------------------------------------------------------|

G -----------------------------------------5-4-----9---7-5-4--|
D ------------------------44-4---------5-------7-5------------|
A ------2--2-2-2-----2--2---2-2---3--3---3--------------------|
E ------------2-2---------------------------------------------|

G ----------------------------------------7-7-5-7-5-----|
D -----------44-4---------44-4--------5-5---------------|
A ------2--2---2-2---2--2---2-2---3-3-------------------|
E ------------------------------------------------------|

For the next part just strum the A chord at the appropriate parts. You will have to
to the song on when to strum.

Then start back with this right before going back into the verse.

G -------|
D --12\--|
A -------|
E -------|

Verse 1

G -22---2--------22---2--------------22---2--------22---2-------------|
D ----4---432------4---4-2--------------4---432------4---4-2----------|
A ------------4------------432-4----------------4------------432-4----|
E --------------------------------2---------------------------------2-|

G -55---5--------55---5-------------|
D ----7---765-------7---7-5---------|
A -----------7-------------765-7----|
E --------------------------------5-|

G -55---5--------55---5------------------|
D ----7---765-------7---765---55---55----|
A ------------7-------------7----7----7--|
E ---------------------------------------|

G -22---2--------22---2--------------22---2--------22---2-------------|
D ----4---432------4---4-2--------------4---432------4---4-2----------|
A ------------4------------432-4----------------4------------432-4----|
E --------------------------------2---------------------------------2-|

G -55---5--------55---5--------------|
D ----7---765-------7---7-5----------|
A ------------7-------------765-7----|
E ---------------------------------5-|

G -55---5--------55---5-------------------|
D ----7---765-------7---7-5---------------|
A ------------7-------------765-7---------|
E --------------------------------5-------|

Verse 2 (A little varied from the first Verse 2)
                                   *
G -------2--------22-2-2----------2h4--------22-2-2----------------|
D ------------------4----4---------------------4----4--------------|
A -2-4------2-4-------------2-4--------2-4-------------------------|
E -----2--------2---------------2----------2-----------------------|

G ------5/7-5-7-----7-55-5-5--------7-5-7------------------------|
D ----5-----------5-----7---7-----5----------2-3-5-33-3-3--------|
A --3-----------3---------------3----------3---------5---5-------|
E ---------------------------------------------------------------|

G --------2----------22-2-2---------2----------22-2-2----------------|
D ----------2----------4----4---------2----------4----4--------------|
A --2-4--------2-4-------------2-4-------2-4-------------------------|
E ------2----------2--------------2----------2-----------------------|

G ------5-5/7-5-----7-55-5-5-------5/7-5-7---5--|
D ----5-----------5-----7----7---5--------------|
A --3-----------3--------------3----------------|
E ----------------------------------------------|

G --------------------------------------|
D --141412--1210109-710---7------------|
A --------14----10------107-97---------|
E -----------------------------1087-----|

G ----------------------------|
D --------------------4-2-0---|
A --3-3---3-3-3-------------2-|
E ------2-------2-------------|


* I have heard different variations of this part that go 2222h4 but the original 2h4 is
correct one...the other just one sounds cooler though.

You will definately need to listen to the song to figure out timing and such. I don't
you can play this with out listening to the song.

Thanks. FIRST TAB!





Comments


Popular Rush tabs & chords
Grand Designs 1 Bass Tabs
Grand Finale 3 Bass Tabs
Working Man Bass Tabs
A Passage To Bangkok 2 Tabs
Freewill Tabs
Freewill 3 Tabs
Need Some Love 1 Tabs
Red Barchetta Tabs
Spirit Of The Radio 1 Tabs
Vapor Trail Tabs


Song lyrics



↑ Back to top | Tablatures and chords are parodies/interpretations of the original songs. You may use it for private study, scholarship, research or language learning purposes only
© 2014 AZChords.com Contact us | Privacy policy | DMCA | Add/correct tabs | Request tabs | Top 50 tabs