» » »

Roy Buchanan, Sweet Dreams Tabs (ver.2)

Artists:  A B C D E F G H I J K L M N O P Q R S T U V W X Y Z # 

Sweet Dreams Tabs (ver.2)

Roy Buchanan Tabs
Rating:
5/5 (1 vote)
Sweet Dreams lessons Tabs too difficult? Try these video lessons and learn fast
                -------------------------------------------------------------------------------
                             Sweet Dreams - Roy Buchanan
-------------------------------------------------------------------------------

Tuning: Normal


Notes: I have not tabbed the intricate details of Roy's bends and volume
changes as its time consuming, but this should give you a guide to learn
this beautiful tune.

Chords:

G G G G  A7 A7 A7 A7  D D D D  D7 D7 D7 D7

G G G G  A7 A7 A7 A7  D D D D  D7 D7 D7 D7

G G G G  C C C C  G G G G  Em Em Em Em

G G C C  G G D D  G G C C  G G D7 D7 

Use volume knob on guitar to create fade-in affect on first few notes, by playing
note and then rolling up the volume knob.

 
e|---------------------------------------------------------------------------|
B|-3--5---7---7b(8)--7-b(8)r7-5----------------------------------------------|
G|-----------------------------6-----------6--7b(9)r7------------------------|
D|-------------------------------7-5-----7--------------4-5-7----------------|
A|------------------------------------------------------------5--------------|
E|---------------------------------------------------------------------------|

e|---------------------------------------------------------------------------|
B|--/5--7--8-10-7b(8)--7 b(8)r7 5--------------------------------------------|
G|-------------------------------6----------6-7b(9)r7-6-7--------------------|
D|---------------------------------7-5---7------------------4-5-7------------|
A|----------------------------------------------------------------5----------|
E|---------------------------------------------------------------------------|

e|---------------------------------------------------------------------------|
B|-----5-7-7b(8)--8-8--------------------------------------------------------|
G|--7------------------7b(9)r7--5--7b(9)---7b(9)r(7)b(9)r(7)---2b(4)r(2)p(0)-|
D|---------------------------------------------------------------------------|
A|---------------------------------------------------------------------------|
E|---------------------------------------------------------------------------|

e|---------------------------------------------------------------------------|
B|---------------------------------------3b(5)r(3)--3/8---3b(5)r(3)----------|
G|------------------------------------------------------------------2/h(4)---|
D|---0(2)tr-----Em pentatonic-blurb------------------------------------------|
A|--------------on first 3 frets---------------------------------------------|
E|---------------------------------------------------------------------------|

e|---------------------------------------------------------------------------|
B|---------------------------------------------------------------------------|
G|----2b(4)r(2)b(4)-0h(2)p0-----------5--4-----------------------------------|
D|-----------------------------------------5---------------------------------|
A|----------------------------------5----------------------------------------|
E|---------------------------------------------------------------------------|


| /  slide up
| \  slide down
| h  hammer-on
| p  pull-off
| ~  vibrato
| +  harmonic
| x  Mute note
| tr trill
===============================================================================
            
Submit corrections

comments powered by Disqus
↑ Back to top | Roy Buchanan Tabs for Sweet Dreams. Lyrics for acoustic guitar and electric guitar. Tablatures and chords are parodies/interpretations of the original songs. You may use it for private study, scholarship, research or language learning purposes only