» » »

Hey Joe Bass tabs (ver.1)

Artists:  A B C D E F G H I J K L M N O P Q R S T U V W X Y Z # 

Hey Joe Bass tabs (ver.1)

Roy Buchanan
Rating:
0/5 (0 votes)

Hard to play? Try these video lessons and learn fast.
                Tuning: E-A-D-G
~ = vibrato

		*Intro*

|-------7-----7---|
|---7-9---7-9---9-|
|-----------------|
|-----------------|

		*Verse 1*
	x5

|-5---5-----4-5--7--7---------------------------------------------|
|--------5-------------7------------------------------------------|
|-------------------------4-5-7-------5---5---5-7-------5---5---5-|
|-----------------------------------7---7---7---------7---7---7---|

|-5---5-----4-5--7--7------------------------------------------------|
|--------5-------------7------------------------------3--------------|
|-------------------------4-5-7-------5---5---5-7--------5-4-5-3-0~2-|
|-----------------------------------7---7---7------------------------|

		*During the guitar solo*

|-5---------4-5-6-7---------6-7-8-------------------------------------|
|---2-3-4-5---------4-5-6-7-------------------------------------------|
|---------------------------------7-7-7---5---5---5-7-7-7---5---5---5-|
|---------------------------------------7---7---7---------7---7---7---|

	x2 

|-5---5-----4-5--7--7---------------------------------------------|
|--------5-------------7------------------------------------------|
|-------------------------4-5-7-7-7---5---5---5-7-7-7---5---5---5-|
|-----------------------------------7---7---7---------7---7---7---|

	x2

|-5---5-----4-5--7--7-----------------------------------------------|
|--------5-------------7------------------------------9-------------|
|-------------------------4-5-7-7-7---5---5---5-7-7-7---11-10-9-7-9-|
|-----------------------------------7---7---7-----------------------|

	x2 

|-5---5-----4-5--7--7---------------------------------------------|
|--------5-------------7------------------------------------------|
|-------------------------4-5-7-7-7---5---5---5-7-7-7---5---5---5-|
|-----------------------------------7---7---7---------7---7---7---|

		*Verse 2*
	X2

|-5-5-----------4-5--7-7-----------------------------------------------|
|------xx--5-5------------7-7------------------------------------------|
|------------------------------4-5-7-------5---5---5-7-------5---5---5-|
|----------------------------------------7---7---7---------7---7---7---|

		*Verse 1*
		*Outro*

|-5---------4-5-6-7---------6-7-8-------|
|---2-3-4-5---------4-5-6-7-------------|
|---------------------------------7-----|
|---------------------------------------|

		Have fun !!
				...Red Hair Jimmy ...
            
Hard to play? Try these video lessons and learn fast. | Correct




comments powered by Disqus
↑ Back to top | Tablatures and chords are parodies/interpretations of the original songs. You may use it for private study, scholarship, research or language learning purposes only