» » »

Roots, Seed 2 Tabs (ver.1)

Artists:  A B C D E F G H I J K L M N O P Q R S T U V W X Y Z # 

Seed 2 Tabs (ver.1)

Roots Tabs
 Rating:
4/5 (4 votes)
Seed 2 lessons Tabs too difficult? Try these video lessons and learn fast
                E|--0-x--0011-0-0----0-x--0011-0-0------------------------|
B|--1-x--1133-0-1----1-x--1133-0-1------------------------|
G|--2-x--2222-0-2----2-x--2222-0-2------------------------|
D|--2-x--2200-0-2----2-x--2200-0-2------------------------|
A|--0-x--00---0-0----0-x--00---0-0------------------------|
E|--------------------------------------------------------|

E|-5-x--5555-5-5-----5-x-5555-5-5-------------------------|
B|-5-x--5566-5-5-----5-x-5566-5-5-------------------------|
G|-5-x--5577-5-5-----5-x-5577-5-5-------------------------|
D|-7-x--7777-5-7-----7-x-7777-5-7-------------------------|
A|-7-x--7755-5-7-----7-x-7755-5-7-------------------------|
E|-5-x--55---5-5-----5-x-55---5-5-------------------------|

E|-------------------------5-x-5555-5-5-------------------|
B|-5-x-55-55---------------5-x-5566-5-5-------------------|
G|-7-x-77-77--5-x-55-55----5-x-5577-5-5-------------------|
D|-6-x-66-66--7-x-77-77----7-x-7777-5-7-------------------|
A|-7-x-77-77--6-x-66-66----7-x-7755-5-7-------------------|
E|------------7-x-77-77----5-x-55---5-7-------------------|

E|--------------------------------------------------------|
B|--------------------------------------------------------|
G|-5-5-55------7-5-7----5-5-55------7---7-----------------|
D|-5-5-555-5-557-5-7----5-5-555-5-557-9-7-----------------|
A|-3-3-335-5-555-3-5----3-3-335-5-555-5-5-----------------|
E|-------3-3-33---------------3-3-33----------------------|

E|-0-0-00------1-0-1----0-0-00------1-3-1-----------------|
B|-1-1-110-0-003-1-3----1-1-110-0-003-5-5-----------------|
G|-0-0-000-0-002-0-2----0-0-000-0-002-4-2-----------------|
D|-2-2-220-0-00---------2-2-220-0-00----------------------|
A|-3-3-332-2-22---------3-3-332-2-22----------------------|
E|-------3-3-33---------------3-3-33----------------------|

E|-1111111100000000----0-x-0022-0-0-----------------------|
B|-1111111100000000----1-x-1133-0-1-----------------------|
G|-2222222211111111----2-x-2211-0-2-----------------------|
D|-3333333322222222----2-x-2200-0-2-----------------------|
A|-3333333322222222----0-x-00---0-0-----------------------|
E|-1111111100000000---------------------------------------|

E|-0------------1------------0------------0--0--0---------|
B|-1------------3------------0------------0--0--0---------|
G|-2-(let ring)-2-(let ring)-1-(let ring)-----------------|
D|-2------------0------------2-------------2--2--2--------|
A|-0-------------------------2-------------2--2--2--------|
E|---------------------------0--------------0--0----------|
            
Submit corrections

comments powered by Disqus
↑ Back to top | Roots Tabs for Seed 2. Lyrics for acoustic guitar and electric guitar. Tablatures and chords are parodies/interpretations of the original songs. You may use it for private study, scholarship, research or language learning purposes only