» » »

Roots, Seed 2 Bass tabs (ver.1)

Artists:  A B C D E F G H I J K L M N O P Q R S T U V W X Y Z # 

Seed 2 Bass tabs (ver.1)

Roots Tabs
Rating:
3/5 (3 votes)
Seed 2 lessons Tabs too difficult? Try these video lessons and learn fast
                "(0)
The Roots
The Seed
Phrenology

verse:

G|----------------------|
D|----------------------|
A|---------5----3----5--|
E|--3-5--5----5----5----|

chorus:

G|----------------------------------------------------------------|
D|----------------------------------------------------------------|
A|------5--3---5------5--3--5-----------5-3-5----3-5---------3----|
E|--5-3--5---5---3-5-3--5--5--5-6-5-6-5-------3-5----0-3-4-5----5-|

G|-----------------------------------------------------------------|
D|-----------------------------------------------------------------|
A|---3---5-----5-5----3-5-------5--5----3--5----5---5---5---5---5-5|
E|-3---3---3-5------3-----3-3-5--3----3--3----5---5---5---5---5----|

G|------------------------------------------------------|
D|------------------------------------------------------|
A|-----3---3-5--3-5-----3---3-5-5-3---------------------|
E|-3-5---3----------3-5---3---------3-1-0-1-1-0-0-6-3---|
"            
Submit corrections

comments powered by Disqus
↑ Back to top | Roots Bass for Seed 2. Lyrics for acoustic guitar and electric guitar. Tablatures and chords are parodies/interpretations of the original songs. You may use it for private study, scholarship, research or language learning purposes only