» » »

Ron Pope, Our Song Tabs (ver.2)

Artists:  A B C D E F G H I J K L M N O P Q R S T U V W X Y Z # 

Our Song Tabs (ver.2)

Ron Pope Tabs
 Rating:
4.2/5 (5 votes)
Our Song lessons Tabs too difficult? Try these video lessons and learn fast
                I think Ive figured out the chords for "Our Song" or atleast the base of it, which 
is awesome in itself.
The rythm isnt hard to figure out, just flow with the song. ;)

Chords:

F: x81010xx
F/E: x71010xx
F/D: 10x1010xx (or 101212xxx if you strum with emotion)
F/C: 8x1010xx (or 81010xxx if you strum with emotion)

Intro: F

Verse: F, F/E, F/D, F/C

Use this pattern throughout the song:

e--------------------------------------------------------------------------|e
B--------------------------------------------------------------------------|B
G-------10--------10--------10--------10-----------------------------------|G
D-----10--10----10--10----10--10----10--10---------------------------------|D
A----8---------7-----------------------------------------------------------|A
E-----------------------10-------8-----------------------------------------|E

Pre-Chorus: F, F/C x2 and hold on F/C until chorus.
(Add a 10 on the D string)

e----------------------------------------------------------------|e
B----------------------------------------------------------------|B
G-------10----10----10----10----10----10----10----10---10---10---|G
D-----10----10----10----10----10----10----10----10---10---10-----|D
A----8-----8-----------------8-----8-----------------------------|A
E---------------8------8-----------------8-----8----8----8-------|E

Chorus: F, F/E, F/D, F/C
(Add a 10 on the D string)

e--------------------------------------------------------|e
B--------------------------------------------------------|B
G--------10----10----10----10----10----10----10----10----|G
D------10----10----10-----10----10----10----10----10-----|D
A-----8----8------7------7-------------------------------|A
E----------------------------10----10-----8-----8--------|E

"Oh oh, and this is our song" part: F, F/C
(Add a 10 on the D string)

e-------------------------------------------|e
B-------------------------------------------|B
G--------10----10---------------------------|G
D------10----10-----------------------------|D
A-----8-----8-------------------------------|A
E----------------8--------------------------|E

Intro: again (same as above)

Verse: again (same as above)

Pre-Chorus: again (same as above)

Chorus: again (same as above)

Intro: again (same as above)

Bridge: F/C, F/D, F x2 (end on F/C)
(Add a 10 on the D string)

e----------------------------------------------------------|e
B----------------------------------------------------------|B
G-------10----10----10----10----10----10-----10----10------|G
D-----10----10----10----10----10----10-----10----10--------|D
A----------------8-----8------------------8-----8----------|A
E----8----10-----------------8----10------------------8----|E

Intro: again (same as above)

Chorus: again (same as above)

Intro: End on F.

Hope you dont find this to confusing, and enjoy this great song!
            
Submit corrections

comments powered by Disqus
↑ Back to top | Ron Pope Tabs for Our Song. Lyrics for acoustic guitar and electric guitar. Tablatures and chords are parodies/interpretations of the original songs. You may use it for private study, scholarship, research or language learning purposes only