» » »

Our Song Tabs (ver.1)

Artists:  A B C D E F G H I J K L M N O P Q R S T U V W X Y Z # 

Our Song Tabs (ver.1)

Ron Pope
Rating:
4/5 (1 vote)

Hard to play? Try these video lessons and learn fast.
                I know you probably see this a lot, but this actually my 1st tab :/ Hope its 
100% :) play it over & over & sounds great :D enjoy

Intro:

e--------------------------------------------------------------------------|e
B--------------------------------------------------------------------------|B
G-------10--------10--------10--------10-----------------------------------|G
D-----10--10----10--10----10--10----10--10---------------------------------|D
A----8---------7-----------------------------------------------------------|A
E-----------------------10-------8-----------------------------------------|E


Verse (same as intro)     X8:

e--------------------------------------------------------------------------|e
B--------------------------------------------------------------------------|B
G-------10--------10--------10--------10-----------------------------------|G
D-----10--10----10--10----10--10----10--10---------------------------------|D
A----8---------7-----------------------------------------------------------|A
E-----------------------10-------8-----------------------------------------|E 


Pre-Chorus:

e----------------------------------------------------|e
B----------------------------------------------------|B
G-------10------10------10------10------10------10---|G
D-----10--10--10--10--10--10--10--10--10--10--10--10-|D
A----8-------8-----------------------8-------8-------|A
E-------------------8--------8-----------------------|E


e----------------------------------|e
B----------------------------------|B
G-----10------10-------10------10--|G
D---10--10--10--10---10--10--10--10|D
A----------------------------------|A
E--8-------8-------8--------8------|E


Chorus:

e-------------------------------------------------------------------------|e
B-------------------------------------------------------------------------|B
G-------10--------10--------10------10-------10------10------10------10---|G
D-----10--10----10--10----10--10--10--10---10--10--10--10--10--10--10--10-|D
A----8---------8--------7--------7----------------------------------------|A
E----------------------------------------10------10-------8-------8-------|E


"Oh oh, and this is our song"
e-----------------------------------------------|e
B-----------------------------------------------|B
G--------10------10-----------------------------|G
D------10--10--10--10---------------------------|D
A-----8-------8---------------------------------|A
E--------------------8--------------------------|E

Intro:

e--------------------------------------------------------------------------|e
B--------------------------------------------------------------------------|B
G-------10--------10--------10--------10-----------------------------------|G
D-----10--10----10--10----10--10----10--10---------------------------------|D
A----8---------7-----------------------------------------------------------|A
E-----------------------10-------8-----------------------------------------|E


Verse     X8:

e--------------------------------------------------------------------------|e
B--------------------------------------------------------------------------|B
G-------10--------10--------10--------10-----------------------------------|G
D-----10--10----10--10----10--10----10--10---------------------------------|D
A----8---------7-----------------------------------------------------------|A
E-----------------------10-------8-----------------------------------------|E 


Pre-Chorus:

e----------------------------------------------------|e
B----------------------------------------------------|B
G-------10------10------10------10------10------10---|G
D-----10--10--10--10--10--10--10--10--10--10--10--10-|D
A----8-------8-----------------------8-------8-------|A
E-------------------8--------8-----------------------|E

e----------------------------------|e
B----------------------------------|B
G-----10------10-------10------10--|G
D---10--10--10--10---10--10--10--10|D
A----------------------------------|A
E--8-------8-------8--------8------|E


Chorus     X2:

e-------------------------------------------------------------------------|e
B-------------------------------------------------------------------------|B
G-------10--------10--------10------10-------10------10------10------10---|G
D-----10--10----10--10----10--10--10--10---10--10--10--10--10--10--10--10-|D
A----8---------8--------7--------7----------------------------------------|A
E----------------------------------------10------10-------8-------8-------|E 

"Oh oh, and this is our song"
e-----------------------------------------------|e
B-----------------------------------------------|B
G--------10------10-----------------------------|G
D------10--10--10--10---------------------------|D
A-----8-------8---------------------------------|A
E--------------------8--------------------------|E 


Intro:

e--------------------------------------------------------------------------|e
B--------------------------------------------------------------------------|B
G-------10--------10--------10--------10-----------------------------------|G
D-----10--10----10--10----10--10----10--10---------------------------------|D
A----8---------7-----------------------------------------------------------|A
E-----------------------10-------8-----------------------------------------|E


Bridge (* = 8 on 3rd time round):

e-----------------------------------|e
B-----------------------------------|B
G-------10------10------10------10--|G
D-----10--10--10--10--10--10--10----|D
A--------------------8-------8------|A
E----8------10---------------------*|E X3


Verse     X4:

e--------------------------------------------------------------------------|e
B--------------------------------------------------------------------------|B
G-------10--------10--------10--------10-----------------------------------|G
D-----10--10----10--10----10--10----10--10---------------------------------|D
A----8---------7-----------------------------------------------------------|A
E-----------------------10-------8-----------------------------------------|E


Chorus     X2:

e-------------------------------------------------------------------------|e
B-------------------------------------------------------------------------|B
G-------10--------10--------10------10-------10------10------10------10---|G
D-----10--10----10--10----10--10--10--10---10--10--10--10--10--10--10--10-|D
A----8---------8--------7--------7----------------------------------------|A
E----------------------------------------10------10-------8-------8-------|E

"Oh oh, and this is our song"
e-----------------------------------------------|e
B-----------------------------------------------|B
G--------10------10-----------------------------|G
D------10--10--10--10---------------------------|D
A-----8-------8---------------------------------|A
E--------------------8--------------------------|E


Outro (same as intro) (* = 8 on 2nd time round)     X2:

e--------------------------------------------------------------------------|e
B--------------------------------------------------------------------------|B
G-------10--------10--------10--------10-----------------------------------|G
D-----10--10----10--10----10--10----10--10---------------------------------|D
A----8---------7----------------------------*------------------------------|A
E-----------------------10-------8-----------------------------------------|E 
            
Hard to play? Try these video lessons and learn fast. | Correct




comments powered by Disqus
↑ Back to top | Tablatures and chords are parodies/interpretations of the original songs. You may use it for private study, scholarship, research or language learning purposes only