» » »

Rolling Stones, She's A Rainbow Tabs (ver.2)

Artists:  A B C D E F G H I J K L M N O P Q R S T U V W X Y Z # 

She's A Rainbow Tabs (ver.2)

Rolling Stones Tabs
 Rating:
4/5 (4 votes)
She's A Rainbow lessons Tabs too difficult? Try these video lessons and learn fast
1
                (1)



e|-----------7-6-----------7-6------------7-6------------7-6-----------------|
B|-----5-7-9---------5-7-9----------5-7-9----------5-7-9---------------------|
G|-6-8-----------6-8------------6-8------------6-8---------------------------|
D|---------------------------------------------------------------------------|
A|---------------------------------------------------------------------------|
E|---------------------------------------------------------------------------|

e|----------4-6--------------------------------------------------------------|
B|-----5-7-------7-5-4-------------------------------------------------------|
G|-6-8-----------------------------------------------------------------------|
D|---------------------------------------------------------------------------|
A|---------------------------------------------------------------------------|
E|---------------------------------------------------------------------------|


    B*chord  222442


B                        E
She comes in colors everywhere
E             B
She combs her hair
B            B*  B                                
She’s like a rainbow
B                    E
Coming colors in the air
E        B
Oh, everywhere
B            F#              B
She comes in colors…..ooh la la

B                        E
She comes in colors everywhere
E             B
She combs her hair
B            B*  B
She’s like a rainbow
B                    E
Coming colors in the air
E        B
Oh, everywhere
B            F#     B
She comes in colors

E                            F#
Have you seen her dressed in blue? 
        E               F#
See the sky in front of you
        E              F#
And her face is like a sail
         E                 F#
Speck of white so fair and pale
F#                   E  B
Have you seen a lady fairer? 

B                        E
She comes in colors everywhere
E             B
She combs her hair
B            B*  B
She’s like a rainbow
B                    E
Coming colors in the air
E        B
Oh, everywhere
B            F#     B
She comes in colors

E                        F#
Have you seen her all in gold? 
       E                F#
Like a queen in days of old
           E           F#
She shoots colors all around
       E            F#
Like a sunset going down
F#                   E  B
Have you seen a lady fairer? 

B                        E
She comes in colors everywhere
E             B
She combs her hair
B            B*  B
She’s like a rainbow
B                    E
Coming colors in the air
E        B
Oh, everywhere
B            F#     B
She comes in colors
B           B*  B
Shes like a rainbow
B                    E
Coming colors in the air
E        B
Oh, everywhere
B            F#      B
She comes in colors
            
Submit corrections

comments powered by Disqus
↑ Back to top | Rolling Stones Tabs for She's A Rainbow. Lyrics for acoustic guitar and electric guitar. 1 Tablatures and chords are parodies/interpretations of the original songs. You may use it for private study, scholarship, research or language learning purposes only