» » »

She's A Rainbow Bass tabs (ver.1)

Artists:  A B C D E F G H I J K L M N O P Q R S T U V W X Y Z # 

She's A Rainbow Bass tabs (ver.1)

Rolling Stones
Rating:
0/5 (0 votes)

Hard to play? Try these video lessons and learn fast.
                Intro

G|-----5---8---5---|-----5---8---5---|-----5---8---5---|-----5---8---5---|
D|-3---------------|-3---------------|-3---------------|-3---------------|
A|-----------------|-----------------|-----------------|-----------------|
E|-----------------|-----------------|-----------------|-----------------|

G|-----5---8---5---|-----5---8---5---|-3-------3-------|
D|-3---------------|-3---------------|-----3-------3---|
A|-----------------|-----------------|-----------------|
E|-----------------|-----------------|-----------------|


Chorus

G|---------3-------|-----------------|-----------------|-----------------|
D|-----3-------3---|-1---1---1---1---|-----------------|-----------------|
A|-1-------------1-|-----------------|-1---1---1---1---|-1---1---1---1---|
E|-----------------|-----------------|-----------------|-----------------|

G|---------3-------|-----------------|-----------------|-----------------|
D|-----3-------3---|-1---1---1---1---|-----------------|---------3-------|
A|-1-------------1-|-----------------|-1---1---1---1---|-----3-------3---|
E|-----------------|-----------------|-----------------|-1---------------|

G|-----------------|---------3-------|-----------------|
D|---------3-------|-----3-------3---|-----------------|
A|-----3-------3---|-1---------------|-1---------------|
E|-1---------------|-----------------|-----------------|


Verse

G|-----------------|-----------------|-----------------|-----------------|
D|-----------------|-----------------|-----------------|-----------------|
A|-1---------------|-----------------|-----------------|-----------------|
E|-----------------|-1----1-1--------|-1----1-1--------|-1----1-1--------|

G|-----------------|-----------------|-----------------|---------3-------|
D|-----------------|-----------------|-----------------|-----3-------3---|
A|-----------------|-----------------|-----------------|-1---------------|
E|-1----1-1-1----1-|-1----1-1-1----1-|-1----1-1-1----1-|-----------------|
            
Hard to play? Try these video lessons and learn fast. | Correct




comments powered by Disqus
↑ Back to top | Tablatures and chords are parodies/interpretations of the original songs. You may use it for private study, scholarship, research or language learning purposes only