» » »

Rolling Stones, Honky Tonk Woman Bass tabs (ver.2)

Artists:  A B C D E F G H I J K L M N O P Q R S T U V W X Y Z # 

Honky Tonk Woman Bass tabs (ver.2)

Rolling Stones Tabs
Rating:
0/5 (0 votes)
Honky Tonk Woman lessons Tabs too difficult? Try these video lessons and learn fast
                -------------------------------------------------------------------------------
			   Honky Tonk Woman  - Rolling Stones
-------------------------------------------------------------------------------



Verse - no bass

1st chorus                                                                 
|---------------------------------------------------------------------------|
|------------------------------------------------------------------------5--|
|---------------3----5----5-------------------------------------------------|
|--3--3----5-------------------5----3--3------0----3--3----3----5----3------|
                                                                   
|-------------------------------------------------------------------|
|-------------------------------------------------------------------|
|-------5----------5------------------------------------------------|
|--3--------------------5----3----------3----0----3----------3------|


2nd chorus  same as 1st                                                              

                                                                      
Solo
|------------------------------------------------------------------------------------------|
|-------5--------------------5-------------------------------------------------------------|
|---------------------------------------------3--3--3------3--3---------3--3----3--3-------|
|--3-----------3----3---------------3----3-----------------------3----------------------3--|

|-------------------------------------------------------------------7---------------------7--|
|-------------5----------------------------------------4----5----7-----------4----5----7-----|
|------------------------------------5--3--4--5-----5------------------5--5------------------|
|--3--3----3-----3----5------5--5------------------------------------------------------------|
                                                                          
|--------------------------------------------------------------------------------------------|
|--------5-----------------------5-----------------------------------------------------------|
|---------------------------------------------2---3--3--------3----3----3--3--------3--------|
|--3--3-------3--3----3----3--3-------3--3---------------------------------------------0--2--|
                                                                       
|-------------------------------------------------------------------------------------------|
|--------5-------------------------------------------------------------------5--------------|
|---------------------------5--5------5--5--------------------------------------------------|
|--3--3---------3--3------------------------3----3----3------3----3----3--3---------3----3—-|

Outro
|--------------------------------------------------------------------------------------------|
|----------------------------4-------4-------------------------------------------------------|
|-------2----3------5-------------5-----5------------2----3--3--5-----------2----3--3--5-----|
|--3---------------------------------------5----3------------------3----------------------3--|
                                                                       
|--------------------------------------------------------------------------------------------|
|-----------------------------4-------5--4----------------------------------------5----5--5--|
|------2----3--3--5--5-------------5--------5---------2----3--3--5--------2----3-------------|
|------------------------------------------------3---------------------3---------------------|

|--------------------------------------------------------------------------------------------|
|------------------------------4-------5-----------------------------------------------------|
|-------2----3--3--5--5-------------5-------5--------2----3--3--5-----------2----3--3--5-----|
|--3--------------------------------------------3------------------3----------------------3--|

|--------------------------------------------------------------------------------------------|
|------------------------------4-----5/-4----------------------------------------------------|
|------2----3--3--5--5------5-----5--------5---------2----3----3--4--5-----------------------|
|---------------------------------------------5---3----------------------3--0--2--3----------|
            
Submit corrections

comments powered by Disqus
↑ Back to top | Rolling Stones Bass for Honky Tonk Woman. Lyrics for acoustic guitar and electric guitar. Tablatures and chords are parodies/interpretations of the original songs. You may use it for private study, scholarship, research or language learning purposes only