» » »

Rolling Stones, Honky Tonk Woman Bass tabs (ver.1)

Artists:  A B C D E F G H I J K L M N O P Q R S T U V W X Y Z # 

Honky Tonk Woman Bass tabs (ver.1)

Rolling Stones Tabs
 Rating:
4/5 (4 votes)
Honky Tonk Woman lessons Tabs too difficult? Try these video lessons and learn fast
                1ST CHORUS

E    ------------------------------------------------------------------------------------|
A    --------------------------------------------------------------5-5----------5--------|
D    -------------------5---------0-5--------------------------5------------3-----2-5-5--|
G    ----3------2-3-5-----------------3-3------2--3-3------------------------------------|

E    ---------------------------------------------|
A    ---------------------------------------------|
D    -------5-------------------------------------|
G    ----5----3-3------------3---2-3-3-------3-3--|

2ND CHORUS
E    ----------------------------------------------------|
A    ---5----------------------------------5-------------|
D    ------------------------5--------5-5----------------|
G    -------3--------3-3-5-------------------3---3--3-3--|

GUITAR SOLO
E    ------------------------------------------------------------------|
A    ------5-----5--------55------5------------------------------------|
D    ------------------------------------------33333-2-33--------------|
G    ---3------3------33--------3-------3-0-------------------0-1-2-3--|

E    ------------------------------------------------------------------------------5-7--|
A    -------5--------5--------------7------------7---------------4--------5-7-----------|
D    ------------------------------------------5----------------5-----------------------|
G    ---3--------3--------3-5-5----------55---------------------------------------------|

E    -----------------------5-7--|
A    -----4-----------5-7--------|
D    ---5------------------------|
G    ----------------------------|

E    ---------------------------------------------------------------|
A    -------5-----5--------------5---------5------------------------|
D    ------------------------------------------------2-3----3---33--|
G    ---3------3---------2-33---------3-----------------------------|

E  ---------------------------------------------------------------------------------------|
A  ---------------------------------------------------------------------------------------|
D  --2-3----3-------------5--------------555-55-------------------------------------------|
G  ------------0-1-2-3-3----3-33-----5-------------5-333-33-------------------------------|

E  ----------------------------------------------------------------------------------------|
A  ---------------5555---------------------------------------------------------------------|
D  -----------3----------------------------------------------------------------------------|
G  ----333---------------------------------------------------------------------------------|

3RD CHORUS

E    ------------------------------------------|
A    --------------------------4----5-5--7--4--|
D    -------2--33--4--5--5---------------------|
G    ----3-------------------------------------|

E  -------------------------------------------------------------------------------------------|
A  -------------------------------------------------------------------------------------------|
D  -------2-----2-3-5--------2----2-3-5-------------------------------------------------------|
G  ----3----------------3-3-------------------------------------------------------------------|

CHORUS
E  -------------------------------------------------------------------------------------------|
A  -------------------------------------------------------------------------------------------|
D  --------2---------3-5----------------------------------------------------------------------|
G  -----3---------------------3-3-3-3---------------------------------------------------------|
            
Submit corrections

comments powered by Disqus
↑ Back to top | Rolling Stones Bass for Honky Tonk Woman. Lyrics for acoustic guitar and electric guitar. Tablatures and chords are parodies/interpretations of the original songs. You may use it for private study, scholarship, research or language learning purposes only