» » »

Gimme Shelter Bass tabs (ver.4)

Artists:  A B C D E F G H I J K L M N O P Q R S T U V W X Y Z # 

Gimme Shelter Bass tabs (ver.4)

Rolling Stones
Rating:
0/5 (0 votes)

Tabs too difficult? Try these video lessons and learn fast.
                INTRO

Come in on 3rd Oooooo

G-----------------------------------------------------------------------------------|
D-----------------------------------------------------------------------------------|
A---4~(4 Bars)----4~(2 Bars)-4~ (2 Bars)--------------------------------------------|
E-----------------------------------------------------------------------------------|

G--------------------------------------------------------------------------|
D--------------------------------------------------------------------------|
A--4-4-4-4-4-4-4-4-2-2-2-2-2-2-2-2-0-0-0-0-0-0-0-0-0-0-0-0-0-0-0-0---------|
E--------------------------------------------------------------------------|


VERSE

G--------------------------------------------------------------------------|
D-----------------------2----------------------------2---------------------|
A--4-4-4-4-4-4-4-4-4-2----4-----4-4-4-4-4-4-4-4-4-2----4-------------------|
E--------------------------------------------------------------------------|

G--------------------------------------------------------------------------|
D-----------------------2----------------------------2---------------------|
A--4-4-4-4-4-4-4-4-4-2----4-----4-4-4-4-4-4-4-4-4-2----4-------------------|
E--------------------------------------------------------------------------|

(Chorus)

G--------------------------------------------------------------------------|
D--------------------------------------------------------------------------|
A--4-4-4-4-4-4-4-4-2-2-2-2-2-2-2-2-0-0-0-0-0-0-0-0-0-0-0-0-0-0-0-0---------|
E--------------------------------------------------------------------------|

G--------------------------------------------------------------------------|
D--------------------------------------------------------------------------|
A--4-4-4-4-4-4-4-4-2-2-2-2-2-2-2-2-0-0-0-0-0-0-0-0-0-0-0-0-0-0-0-0---------|
E--------------------------------------------------------------------------|

G--------------------------------------------------------------------------|
D-----------------------2----------------------------2---------------------|
A--4-4-4-4-4-4-4-4-4-2----4-----4-4-4-4-4-4-4-4-4-2----4-------------------|
E--------------------------------------------------------------------------|

Verse 2

G--------------------------------------------------------------------------|
D-----------------------2----------------------------2---------------------|
A--4-4-4-4-4-4-4-4-4-2----4-----4-4-4-4-4-4-4-4-4-2----4-------------------|
E--------------------------------------------------------------------------|

G--------------------------------------------------------------------------|
D-----------------------2----------------------------2---------------------|
A--4-4-4-4-4-4-4-4-4-2----4-----4-4-4-4-4-4-4-4-4-2----4-------------------|
E--------------------------------------------------------------------------|

(Chorus)

G--------------------------------------------------------------------------|
D--------------------------------------------------------------------------|
A--4-4-4-4-4-4-4-4-2-2-2-2-2-2-2-2-0-0-0-0-0-0-0-0-0-0-0-0-0-0-0-0---------|
E--------------------------------------------------------------------------|

G--------------------------------------------------------------------------|
D--------------------------------------------------------------------------|
A--4-4-4-4-4-4-4-4-2-2-2-2-2-2-2-2-0-0-0-0-0-0-0-0-0-0-0-0-0-0-0-0---------|
E--------------------------------------------------------------------------|

G--------------------------------------------------------------------------|
D-----------------------2----------------------------2---------------------|
A--4-4-4-4-4-4-4-4-4-2----4-----4-4-4-4-4-4-4-4-4-2----4-------------------|
E--------------------------------------------------------------------------|

Verse 3

G--------------------------------------------------------------------------|
D-----------------------2----------------------------2---------------------|
A--4-4-4-4-4-4-4-4-4-2----4-----4-4-4-4-4-4-4-4-4-2----4-------------------|
E--------------------------------------------------------------------------|

G--------------------------------------------------------------------------|
D-----------------------2----------------------------2---------------------|
A--4-4-4-4-4-4-4-4-4-2----4-----4-4-4-4-4-4-4-4-4-2----4-------------------|
E--------------------------------------------------------------------------|

(Chorus)

G--------------------------------------------------------------------------|
D--------------------------------------------------------------------------|
A--4-4-4-4-4-4-4-4-2-2-2-2-2-2-2-2-0-0-0-0-0-0-0-0-0-0-0-0-0-0-0-0---------|
E--------------------------------------------------------------------------|

G--------------------------------------------------------------------------|
D--------------------------------------------------------------------------|
A--4-4-4-4-4-4-4-4-2-2-2-2-2-2-2-2-0-0-0-0-0-0-0-0-0-0-0-0-0-0-0-0---------|
E--------------------------------------------------------------------------|

G--------------------------------------------------------------------------|
D-----------------------2----------------------------2---------------------|
A--4-4-4-4-4-4-4-4-4-2----4-----4-4-4-4-4-4-4-4-4-2----4-------------------|
E--------------------------------------------------------------------------|

G--------------------------------------------------------------------------|
D-----------------------2----------------------------2---------------------|
A--4-4-4-4-4-4-4-4-4-2----4-----4-4-4-4-4-4-4-4-4-2----4-------------------|
E--------------------------------------------------------------------------|

Solo

G--------------------------------------------------------------------------|
D--------------------------------------------------------------------------|
A--4-4-4-4-4-4-4-4-2-2-2-2-2-2-2-2-0-0-0-0-0-0-0-0-0-0-0-0-0-0-0-0---------|
E--------------------------------------------------------------------------|

G--------------------------------------------------------------------------|
D--------------------------------------------------------------------------|
A--4-4-4-4-4-4-4-4-2-2-2-2-2-2-2-2-0-0-0-0-0-0-0-0-0-0-0-0-0-0-0-0---------|
E--------------------------------------------------------------------------|

G--------------------------------------------------------------------------|
D--------------------------------------------------------------------------|
A--4-4-4-4-4-4-4-4-2-2-2-2-2-2-2-2-0-0-0-0-0-0-0-0-0-0-0-0-0-0-0-0---------|
E--------------------------------------------------------------------------|

(Rape - Murder)

G--------------------------------------------------------------------------|
D--------------------------------------------------------------------------|
A--4-4-4-4-4-4-4-4-2-2-2-2-2-2-2-2-0-0-0-0-0-0-0-0-0-0-0-0-0-0-0-0---------|
E--------------------------------------------------------------------------|

G--------------------------------------------------------------------------|
D--------------------------------------------------------------------------|
A--4-4-4-4-4-4-4-4-2-2-2-2-2-2-2-2-0-0-0-0-0-0-0-0-0-0-0-0-0-0-0-0---------|
E--------------------------------------------------------------------------|

(Rape - Murder - WOOOO)

G--------------------------------------------------------------------------|
D--------------------------------------------------------------------------|
A--4-4-4-4-4-4-4-4-2-2-2-2-2-2-2-2-0-0-0-0-0-0-0-0-0-0-0-0-0-0-0-0---------|
E--------------------------------------------------------------------------|

G--------------------------------------------------------------------------|
D-----------------------2----------------------------2---------------------|
A--4-4-4-4-4-4-4-4-4-2----4-----4-4-4-4-4-4-4-4-4-2----4-------------------|
E--------------------------------------------------------------------------|

Verse 4

G--------------------------------------------------------------------------|
D-----------------------2----------------------------2---------------------|
A--4-4-4-4-4-4-4-4-4-2----4-----4-4-4-4-4-4-4-4-4-2----4-------------------|
E--------------------------------------------------------------------------|

G--------------------------------------------------------------------------|
D-----------------------2----------------------------2---------------------|
A--4-4-4-4-4-4-4-4-4-2----4-----4-4-4-4-4-4-4-4-4-2----4-------------------|
E--------------------------------------------------------------------------|

(Chorus)

G--------------------------------------------------------------------------|
D--------------------------------------------------------------------------|
A--4-4-4-4-4-4-4-4-2-2-2-2-2-2-2-2-0-0-0-0-0-0-0-0-0-0-0-0-0-0-0-0---------|
E--------------------------------------------------------------------------|

G--------------------------------------------------------------------------|
D--------------------------------------------------------------------------|
A--4-4-4-4-4-4-4-4-2-2-2-2-2-2-2-2-0-0-0-0-0-0-0-0-0-0-0-0-0-0-0-0---------|
E--------------------------------------------------------------------------|

G--------------------------------------------------------------------------|
D--------------------------------------------------------------------------|
A--4-4-4-4-4-4-4-4-2-2-2-2-2-2-2-2-0-0-0-0-0-0-0-0-0-0-0-0-0-0-0-0---------|
E--------------------------------------------------------------------------|

G--------------------------------------------------------------------------|
D--------------------------------------------------------------------------|
A--4-4-4-4-4-4-4-4-2-2-2-2-2-2-2-2-0-0-0-0-0-0-0-0-0-0-0-0-0-0-0-0---------|
E--------------------------------------------------------------------------|

G--------------------------------------------------------------------------|
D--------------------------------------------------------------------------|
A--4-4-4-4-4-4-4-4-2-2-2-2-2-2-2-2-0-0-0-0-0-0-0-0-0-0-0-0-0-0-0-0---------|
E--------------------------------------------------------------------------|

G--------------------------------------------------------------------------|
D--------------------------------------------------------------------------|
A--4-4-4-4-4-4-4-4-2-2-2-2-2-2-2-2-0-0-0-0-0-0-0-0-0-0-0-0-0-0-0-0---------|
E--------------------------------------------------------------------------|

G--------------------------------------------------------------------------|
D--------------------------------------------------------------------------|
A--4-4-4-4-4-4-4-4-2-2-2-2-2-2-2-2-0-0-0-0-0-0-0-0-0-0-0-0-0-0-0-0---------|
E--------------------------------------------------------------------------|

Fades Out
            
Tabs too difficult? Try these video lessons and learn fast.


comments powered by Disqus
↑ Back to top | Tablatures and chords are parodies/interpretations of the original songs. You may use it for private study, scholarship, research or language learning purposes only