» » »

Rolling Stones, Gimme Shelter Bass tabs (ver.3)

Artists:  A B C D E F G H I J K L M N O P Q R S T U V W X Y Z # 

Gimme Shelter Bass tabs (ver.3)

Rolling Stones Tabs
Rating:
0/5 (0 votes)
Gimme Shelter lessons Tabs too difficult? Try these video lessons and learn fast
                The Rolling Stones - Gimme shelter (bass)

Tuning: Standart

h - hammer-on
p - pull-off
\ - slide

Intro
G|-------------------------------------------------------------|
D|-------------------------------------------------------------|
A|----2h4-4-2h4-4-44-4-2h4---4-4-2h4-2\4-2h4-2\4-22\4-4p2------|
E|-------------------------------------------------------------|

Riff 1
G|-------------------------------------------------------------|
D|-------------------------------------------------------------|
A|----4444444--------------------7-7-7-7-----------------------|
E|------------07777777-055555555--5-5-7-7----------------------|

Riff 2
G|-------------------------------------------------------------|
D|-------------------------------------------------------------|
A|----444444444444444-2h444444444444444------------------------|
E|-------------------------------------------------------------|

Order:
Intro 
Riff 1 x1
Riff 2 x2
Riff 1 x2
Riff 2 x3
Riff 1 x2
Riff 2 x3
Riff 1 x6 (Accompanies solo)
Riff 2 x3
Riff 1 x7 (7th time faded)

I'm 95% sure about this.
            

comments powered by Disqus
↑ Back to top | Rolling Stones Bass for Gimme Shelter. Lyrics for acoustic guitar and electric guitar. Tablatures and chords are parodies/interpretations of the original songs. You may use it for private study, scholarship, research or language learning purposes only