» » »

Rolling Stones, Gimme Shelter Bass tabs (ver.1)

Artists:  A B C D E F G H I J K L M N O P Q R S T U V W X Y Z # 

Gimme Shelter Bass tabs (ver.1)

Rolling Stones Tabs
 Rating:
4/5 (4 votes)
Gimme Shelter lessons Tabs too difficult? Try these video lessons and learn fast
1
                rolling_stones/gimme_shelter.btab
 
Basstab by Jan Bjorklund, Finland; 
You are welcome to request for basstabs!
Bienvenidos a pedirme transcripciones para el bajo!
Be sure to use a monospaced font!

TablEdited by Jan Bjorklund for Ronald
Tuning : B E A D G 	Time Signature: 4/4

 tempo 117       |       |        |       |       |       |        
|--------------------------------|--------------------------------|
|--------------------------------|--------------------------------|
|----------------------------3---|4-----------4-------------------|
|--------------------------------|--------------------------------|
|--------------------------------|--------------------------------|

 |       |       |       |        |       |       |       |        
|--------------------------------|--------------------------------|
|--------------------------------|--------------------------------|
|4-----------4---------------4---|4-----------4-------------------|
|--------------------------------|--------------------------------|
|--------------------------------|--------------------------------|

 |       |       |       |        |       |       |       |        
|--------------------------------|--------------------------------|
|----------------4---------------|--------------------------------|
|4-------------------------------|4-----------4---------------4---|
|--------------------------------|--------------------------------|
|--------------------------------|--------------------------------|

 |       |       |       |        |       |       |       |        
|--------------------------------|--------------------------------|
|--------------------------------|--------------------------------|
|4-----------2/--4-----------4---|4-----------2/--4-----------4---|
|--------------------------------|--------------------------------|
|--------------------------------|--------------------------------|

 |       |       |       |        |       |       |       |        
|--------------------------------|--------------------------------|
|--------------------------------|--------------------------------|
|2/--4-------4---0-------0---2---|4-----------4---4---4---4---4---|
|--------------------------------|--------------------------------|
|--------------------------------|--------------------------------|

 |       |       |       |        |       |       |       |        
|--------------------------------|--------------------------------|
|--------------------------------|--------2-------2---------------|
|2-------2-------2-2-2---2---2---|0-----------0-------0---0---0---|
|--------------------------------|--------------------------------|
|--------------------------------|--------------------------------|

 |       |       |       |        |       |       |       |        
|--------------------------------|--------------------------------|
|2-------2-------2-------1---2---|--------------------------------|
|----0-------0-------2-----------|4-----------4---4---4---4-------|
|--------------------------------|----------------------------5---|
|--------------------------------|--------------------------------|

 |       |       |       |        |       |       |       |        
|----------------6---------------|--------------------------------|
|4---5---6---5-----------4---6---|--------------------------------|
|--------------------------------|4---4---4-------4---4---4-------|
|--------------------------------|----------------------------5---|
|--------------------------------|--------------------------------|

 |       |       |       |        |       |       |       |        
|--------------------------------|--------------------------------|
|4---5---6-----------------------|--------------------------------|
|------------4---4---4---2---3---|4-4-4-------4---4---4---4-------|
|--------------------------------|----------------------------5---|
|--------------------------------|--------------------------------|

 |       |       |       |        |       |       |       |        
|--------------------------------|--------------------------------|
|4---5---5---6-----------4---6---|--------------------------------|
|--------------------------------|4-----------4---4---4---4-------|
|--------------------6-----------|----------------------------5---|
|--------------------------------|--------------------------------|

 |       |       |       |        |       |       |       |        
|--------------------------------|--------------------------------|
|4---5---6-----------------------|--------------------------------|
|------------4-------4---2-------|4-------4-------4---4---4-------|
|----------------------------0---|----------------------------0---|
|--------------------------------|--------------------------------|

 |       |       |       |        |       |       |       |        
|--------------------------------|--------------------------------|
|--------------------------------|--------------------------------|
|2---2---2-------2---2---2-------|--------------------------------|
|----------------------------0---|5---5---5---5---5---5---5---5---|
|--------------------------------|--------------------------------|

 |       |       |       |        |       |       |       |        
|--------------------------------|--------------------------------|
|--------------------------------|----------------------------2---|
|--------------------------------|4---------------4---4---4-------|
|----5-------5-------7-------7---|--------------------------------|
|5-------5-------5-------5-------|--------------------------------|

 |       |       |       |        |       |       |       |        
|--------------------------------|--------------------------------|
|--------------------------------|--------------------------------|
|2---2---2-------2---2---2-------|0---0---0-------0---0---0---0---|
|----------------------------0---|--------------------------------|
|--------------------------------|--------------------------------|

 |       |       |       |        |       |       |       |        
|--------------------------------|--------------------------------|
|--------------------------------|--------------------------------|
|----0-------0-------2-------2---|4-------------------4---4---4---|
|0-------0-------0-------0-------|--------------------------------|
|--------------------------------|--------------------------------|

 |       |       |       |        |       |       |       |        
|--------------------------------|--------------------------------|
|--------------------------------|--------------------------------|
|4---4---4---4---4---4---4---4---|4---4---4---4---4---4---4---4---|
|--------------------------------|--------------------------------|
|--------------------------------|--------------------------------|

 |       |       |       |        |       |       |       |        
|--------------------------------|--------------------------------|
|--------------------------------|--------------------------------|
|4---4---4---4---4---4---4---4---|4---4---4---4---4---4---4---4---|
|--------------------------------|--------------------------------|
|--------------------------------|--------------------------------|

 |       |       |       |        |       |       |       |        
|--------------------------------|--------------------------------|
|--------------------------------|--------------------------------|
|4---4---4---4---4---4---4---4---|4---4---4-------4---4---4---4---|
|--------------------------------|--------------------------------|
|--------------------------------|--------------------------------|

 |       |       |       |        |       |       |       |        
|--------------------------------|--------------------------------|
|--------------------------------|--------------------------------|
|4---4---4---4---4---4---4---4---|4---4---4-------4---4-------4---|
|--------------------------------|------------------------4-------|
|--------------------------------|--------------------------------|

 |       |       |       |        |       |       |       |        
|--------------------------------|--------------------------------|
|--------------------------------|--------------------------------|
|4---4---4---4---4---4---4---4---|4-------4---4---4---4---4---4---|
|--------------------------------|--------------------------------|
|--------------------------------|--------------------------------|

 |       |       |       |        |       |       |       |        
|--------------------------------|--------------------------------|
|--------------------------------|--------------------------------|
|4---4---4---4---4---4---4-------|4-------4-------4---4---4-------|
|----------------------------4---|----------------------------0---|
|--------------------------------|--------------------------------|

 |       |       |       |        |       |       |       |        
|--------------------------------|--------------------------------|
|--------------------------------|--------------------------------|
|2---2---2---2---2---2---2-------|0-------0-------0---1---0---1---|
|----------------------------0---|--------------------------------|
|--------------------------------|--------------------------------|

 |       |       |       |        |       |       |       |        
|--------------------------------|--------------------6-----------|
|--------------------------------|--------------------------------|
|----0-------0-------2---0---2---|4-------4-------4-------4---4---|
|0-------0-0-----0-0-------------|--------------------------------|
|--------------------------------|--------------------------------|

 |       |       |       |        |       |       |       |        
|--------------------------------|--------------------------------|
|--------------------------------|--------------------------------|
|2-------2-------2---2---2---2---|0-------0-------0---0---0---0---|
|--------------------------------|--------------------------------|
|--------------------------------|--------------------------------|

 |       |       |       |        |       |       |       |        
|--------------------------------|--------------------------------|
|--------------------------------|--------------------------------|
|0---0---0---0---2---2---2---3---|4-------4-------4---4---4---4---|
|--------------------------------|--------------------------------|
|--------------------------------|--------------------------------|

 |       |       |       |        |       |       |       |        
|--------------------------------|--------------------------------|
|------------------------4---6---|--------------------------------|
|4---4---4---4---4---4-4---------|4-------4-------4---4---4-------|
|--------------------------------|--------------------------------|
|--------------------------------|--------------------------------|

 |       |       |       |        |       |       |       |        
|--------------------------------|--------------------------------|
|--------------------------------|--------------------------------|
|4---4---4---4---4---4---4---4---|4-------4-------4---4---4---4---|
|--------------------------------|--------------------------------|
|--------------------------------|--------------------------------|

 |       |       |       |        |       |       |       |        
|--------------------------------|--------------------------------|
|4---5---5---6---6---6---4---6---|--------------------------------|
|--------------------------------|4---4---4-------4---4---4---4---|
|--------------------------------|--------------------------------|
|--------------------------------|--------------------------------|

 |       |       |       |        |       |       |       |        
|--------------------------------|--------------------------------|
|4---5---5---6---6---------------|--------------------------------|
|--------------------4-----------|4-------4-------4---4---4---4---|
|------------------------7---7---|--------------------------------|
|--------------------------------|--------------------------------|

 |       |       |       |        |       |       |       |        
|--------------------------------|--------------------------------|
|--------------------------------|--------------------------------|
|2---2---2---2---2---2---2---2---|0---0---0-------0---0---0---0---|
|--------------------------------|--------------------------------|
|--------------------------------|--------------------------------|

 |       |       |       |        |       |       |       |        
|--------------------------------|--------------------------------|
|--------------------------------|----------------------------2---|
|----0-------0-------2-------2---|4---4---4-------4---4---4-------|
|0-------0-------0-------0-------|--------------------------------|
|--------------------------------|--------------------------------|

 |       |       |       |        |       |       |       |        
|--------------------------------|--------------------------------|
|--------------------------------|--------------------------------|
|2---2---2-------2---2---2---2---|0---0---0-------0---0---0---0---|
|--------------------------------|--------------------------------|
|--------------------------------|--------------------------------|

 |       |       |       |        |       |       |       |        
|--------------------------------|--------------------------------|
|--------------------------------|--------------------------------|
|----0-------0---0---2---0---2---|4---4---4-------4---4---4-------|
|0-------0-----------------------|----------------------------0---|
|--------------------------------|--------------------------------|

 |       |       |       |        |       |       |       |        
|--------------------------------|--------------------------------|
|--------------------------------|--------------------------------|
|2---2---2-------2---2---2-------|0---0---0-------0---0---0---0---|
|----------------------------0---|--------------------------------|
|--------------------------------|--------------------------------|

 |       |       |       |        |       |       |       |        
|--------------------------------|--------------------------------|
|--------------------------------|--------------------------------|
|----0-------0-------2---0---2---|4---4---4-------4---4---4---4---|
|0-------0-------0---------------|--------------------------------|
|--------------------------------|--------------------------------|

 |       |       |       |        |       |       |       |        
|--------------------------------|--------------------------------|
|--------------------------------|--------------------------------|
|2---2---2-------2---2-------2---|0---0---0-------0---0-----------|
|------------------------0-------|----------------------------0---|
|--------------------------------|------------------------3-------|

 |       |       |       |        |       |       |       |        
|--------------------------------|--------------------------------|
|--------------------------------|--------------------------------|
|----0-------0-------2---0---2---|4---4---4-------4---4-----------|
|0-------0-------0---------------|------------------------2---4---|
|--------------------------------|--------------------------------|

 |       |       |       |        |       |       |       |        
|--------------------------------|--------------------------------|
|--------------------------------|--------------------------------|
|2---2---2-------2---2-------2---|0---0---0-------0---0---0---0---|
|------------------------0-------|--------------------------------|
|--------------------------------|--------------------------------|

 |       |       |       |        |       |       |       |        
|--------------------------------|--------------------------------|
|--------------------------------|--------------------------------|
|----0-------0-------2-------2---|4---4---4-------4---4---4---4---|
|0-------0-------0-------0-------|--------------------------------|
|--------------------------------|--------------------------------|

 |       |       |       |        |       |       |       |        
|--------------------------------|--------------------------------|
|--------------------------------|--------------------------------|
|2-------2-------2---2---2---2---|------and so on ... maby ...----|
|--------------------------------|--------------------------------|
|--------------------------------|--------------------------------|
            
Submit corrections

comments powered by Disqus
↑ Back to top | Rolling Stones Bass for Gimme Shelter. Lyrics for acoustic guitar and electric guitar. 1 Tablatures and chords are parodies/interpretations of the original songs. You may use it for private study, scholarship, research or language learning purposes only