» » »

Angie Tabs (ver.8)

Artists:  A B C D E F G H I J K L M N O P Q R S T U V W X Y Z # 

Angie Tabs (ver.8)

Rolling Stones
Rating:
0/5 (0 votes)

Hard to play? Try these video lessons and learn fast.
                
harmonic      am
e---------------------------------------0-------4---------------------|
a--12-----------0-0-0-0-0-----0-0-0-----------------------------------|
d---------------2-2-2-2-2-----2-2-2-----------------------------------|
g---------------2-2-2-2-2-----2-2-2-------4---4-----4-----------------|
b---------------1-1-1-1-1-----1-1-1--------3--3------3----------------|
e---------------0-0-0-0-3^0---0-0-0---------0---------0---------------|


                                hammer on
e---------------------------------------------------------------------------|
a----------------------------------0h3----------------2---------3-2---------|
d--5-------5-----3---3---3---------0h2----2----2-------0---------------2----|
g---5-----5------3---2---2-----------------0--0--0------0--------------2----|
b-----3--3-------1---1---1------------------1--------------------------1----|
e------3---------1---1---1---------------------------------------------0----|


am                              E                   G
e-----------------------------------------------------3-3-3-3-------------|
a------------------------------2-2-2-2-2-2-2-2--------2-2-2-2-------------|
d-2--2--2--2--2--2--2--2-------2-2-2-2-2-2-2-2--------0-0-0-0-------------|
g-2--2--1--1--2--2--2--2-------1-1-1-1-1-1-1-1--------0-0-0-0-------------|
b-1--1--1--1--1--1--1--1---------------2--------------0-0-0-0-------------|
e-0--0--0--0--0--0--0--0------------------------------3-3-3-3-------------|

 F         chord unknown           C
e-----------------------------------------------------------------|
a---------------------------0h3----3-3-3-3----2-2-2--3-2----------|
d--3-------3----------------0h2----2-2-2-2----0-0-0--0-0------2---|
g--3-------2-----------------------0-0-0-0----0-0-0--0-0------2---|
b--1-------1-----------------------1-1-1-1--------------------1---|
e--1-------1-----------------------0-0-0-0--------------------0---|

Then repeat this is my first tab and this is my version
            
Hard to play? Try these video lessons and learn fast. | Correct




comments powered by Disqus
↑ Back to top | Tablatures and chords are parodies/interpretations of the original songs. You may use it for private study, scholarship, research or language learning purposes only