» » »

Rolling Stones, Angie Tabs (ver.2)

Artists:  A B C D E F G H I J K L M N O P Q R S T U V W X Y Z # 

Angie Tabs (ver.2)

Rolling Stones Tabs
 Rating:
1.8/5 (78 votes)
Angie lessons Tabs too difficult? Try these video lessons and learn fast
1
                                                  Angie                                   
    


                                                                   
Acoustic Guitar
para paola


                          Am/E                       
E||--------------------|--0--0--0-----3-0-----------|
B||--------------------|--1-----1-----1-------1-----|
G||--------------------|--2-----2----------2--------|
D||--------------------|--2---------2-----------2-2-|
A||----------12--------|----------------------------|
E||--------------------|----------------------------|


     E7sus2/F#                  Gsus4          FsuF4        
---------0-------0----0------|---------3---------------1---|
-------3---3-----3-----------|-------3---3-----1--1------1-|
-----4-------4---4-------4-0-|-----5-------5---3--2--------|
---------------------------x-|--5------------5-3--3--------|
-----------------------------|-----------------------------|
--0------------4-------------|-----------------------------|


  F       FsusC/E                                            
------1------------0----------||--------0---0----5-5-5-3----|
------------1------1------1---||--------1---1-1--5-5-5-3-5--|
----2-------0-0-------------0-||*--2----2---2-2----------5--|
--3-------3---2---------0-----||*--2--------2-2-------------|
--------3-------------2-------||---0----------0-------------|
------------------------------||----------------------------|


                                                     
-----------0--------0-----|-----3--3----------------|
---------3---3-3----3-----|-----3--3--3--1--1-------|
-------4-------4-------4--|-----5--5--4--3--2-------|
--------------------------|--5-----------3--3-------|
--------------------------|----------------------3--|
--0-----------------------|-------------------------|


  Cadd11   C                                               
------0-----------------------|-----------0----5-5-5-3----|
--1---1----1------------------|-----------1----5-5-5-3-5--|
--0-----0--0------0-------0---|-------2-----2----------5--|
--3-----3--2----2-------0-----|-------2-----2-------------|
--3-----3--3--3-----3-2-----2-|--0----------0-------------|
------------------------------|---------------------------|


       E7sus2/F#                                       
-------0---0----0-------0---|-----3--3----------------|
-------3-----3----3---3-----|-----3--3--3--1--1-------|
-------4-----4------4-----4-|-----5--5--4--3--2-------|
----------------------------|--5-----------3--3-------|
----------------------------|----------------------3--|
--0-------------------------|-------------------------|


                            Gadd9      GsuG/DDG        
-----0----------0--------|--5--5-5-5----8-7-7--7h7-x--|
-----1----------1--1--0--|--3--3-3-3----8-8-8--8h8-x--|
--0--------0----0--0-----|--4--4-4-4----7-7-7--7h7-x--|
--3-----3--2-------------|--5--5-5-5----0-0-0--0h0-x--|
--3-----3--3-------------|----------------------------|
-------------------------|----------------------------|


  Dm           Am          C/A  C             F             
--1--1-1-x--1--0--0-0--0-0-0-|--0--0-0--0-x-x-1---1--1-x-x-|
--3--3-3-x--3--1--1-1--1-1-1-|--1--1-1--1-x-x-1---1--1-x-x-|
--2--2-2-x--2--2--2-2--2-2-0-|--0--0-0--0-x-x-2---2--2-x-x-|
--0--0-0-x--0--2--2-2--2-2-2-|--2--2-2--2-x-x-3---3--3-x-x-|
---------------0--0-0--0-0-0-|--3--3------x---3---3--3-x-x-|
-----------------------------|----------------1---1--1-----|


  G        Gadd9                                             
-------3-3-3-x-x-3--x-x-3-5-3--|-------5-5-5-5-5-3----------|
-------3-3-3-x-x-3--x-x-3-3-3--|--1----5-5-5-5-5-3-5--3--5--|
--4h-4-4-4-4-x-x-4--x-x-4-4-4--|--2----------------5--4--5--|
--5h-5-------x-x----x-x--------|--2-------------------------|
--5h-5-5-5-5-x-x-5--x-x-5-5-5--|--0-------------------------|
--3h-3---3-3-x-x-3--x-x-3-3-3--|----------------------------|


       E7sus2/F#                                       
-------0-0-0-0-0-----------|-----3--3-----1--1--------|
-------3-3-3-3-3--2/-3-----|-----3--3-----1--1--------|
-------4-4-4-4-4--3/-4-----|-----5--5-----3--2--0-----|
------------------------5--|--5--5--5--5--3--3-----3--|
---------------------------|--------------------------|
--0------------------------|--------------------------|


  Cadd1C                                                   
--0--0------0----0----------||--------0---0----0/0-0-0-0--|
--1--1-1-1--1----1----------||--------1---1-1--1/5-5-5-5--|
--0--0-0-0--0----0------0--*||*--2----2---2-2-------------|
--3--3p2-0--2---------0----*||*--2--------2-2-------------|
--3--3-3-3--3-------2-------||---0----------0-------------|
----------------------------||----------------------------|


                                                                              
--0----0-0-0-0-0----x----|----3-3-3--3-------------|-------------------------|
--0----1/2-2-2-3----x----|----3-3-3--3--1--1-------|------------1------------|
--1----2/3-3-3-4----x----|----4-4-5--4--3--2-------|--0-0-0--0--0------------|
--0----2/3-3-3-4---------|----5-5-5--5--3--3-------|--3/5-3--0--2------------|
--2----------------------|----------------------3--|--3/5-3--3--3------------|
--0----------------------|-------------------------|---------------3----4----|


                                         E7sus2/F#          
--0----------12------------------|-------0---0---4h7-0--x--|
--0h1--------12h13---------------|-------3-------5------x--|
------2------------14------------|-------4--------------x--|
-----------------------14-12-10--|--9----------------------|
---------------------------------|-------------------------|
---------------------------------|-------------------------|


                            Cadd11   C              
----3-3-3--3-------------|------0---------0--------|
----3-3-3--3--1--1-------|--1---1----1----1--1--0--|
----4-4-5--4--3--2-------|--0-----0--0----0--0-----|
----5-5-5--5--3--3-------|--3-----3--2-------------|
----------------------3--|--3-----3--3-------------|
-------------------------|-------------------------|


  Gadd9      GsuG/DDG           Dm           Am          C/A
--5--5-5-5----8-7-x--7h7-x-x-|--1--1-1-x--1--0--0-0--0-0-0-|
--3--3-3-3----8-8-x--8h8-x-x-|--3--3-3-x--3--1--1-1--1-1-1-|
--4--4-4-4----7-7-x--7h7-x-x-|--2--2-2-x--2--2--2-2--2-2-0-|
--5--5-5-5----0-0-x--0h0-x-x-|--0--0-0-x--0--2--2-2--2-2-2-|
-----------------------------|---------------0--0-0--0-0-0-|
-----------------------------|-----------------------------|


  C             F                 G   G     Gadd9                  
--0--0-0--0-x-x-1---1-1-1-1-1/-|------3-3-3-5-3-3-3-3-5-3--5-3--3-|
--1--1-1--1-x-x-1---1-1-1-1-1/-|------3-3-3-3-3-3-3-3-3-3--3-3--3-|
--0--0-0--0-x-x-2---2-2-2-2-2/-|--4---4-4-4-4-4-4-4-4-4-4--4-4--4-|
--2--2-2--2-x-x-3---3-3-3-3-3/-|--5-------------------------------|
--3--3------x---3---3-3-3-3-3/-|--5---5-5-5-5-5-5-5-5-5-5--5-5--5-|
----------------1---1-1-1-1-1/-|--3-------3---3-----3---3--3----3-|


                                    E7sus2/F#            
-------5-5-5-5-5-3----------|-------0-0-0-0-0-----------|
--1----5-5-5-5-5-3-5--3--5--|-------3-3-3-3-3--2/-3-----|
--2----------------5--4--5--|-------4-4-4-4-4--3/-4-----|
--2-------------------------|------------------------5--|
--0-------------------------|---------------------------|
----------------------------|--0------------------------|


                             Cadd1C                      
-----3--3-----1--1--------|--0--0------0----0----------||
-----3--3-----1--1--------|--1--1-1-1--1----1----------||
-----5--5-----3--2--0-----|--0--0-0-0--0----0------0--*||
--5--5--5--5--3--3-----3--|--3--3p2-0--2---------0----*||
--------------------------|--3--3-3-3--3-------2-------||
--------------------------|----------------------------||


                                                        
-------0-----0-0-0-0-0-----|-------0---------0---0-----|
-------1-----1-1-1-3-1-0-1-|-------3-----0/3-3---3-x-x-|
-------2-----2-2-2-2-2-2-2-|-------4---------4---4-x-x-|
-------2-----2-2-2-2-2-2-2-|-------4---4-----4---4-x-x-|
--0----------0-0-0-0-0-0-0-|---------------------------|
---------------------------|--0------------------------|


                                                                              
-----3--3----------------|------0------------------|--0----0---0-------------|
-----3--3--3--1--1-------|--1---1----1----1--------|--1----1---1-1-----1--0--|
-----5--5--4--3--2-------|--0-----0--0----0-----0--|--2----2---2-2--2--------|
--5-----------3--3-------|--3-----3--2-------------|--2--------2-2-----------|
----------------------3--|--3-----3--3-------2-----|--0----------0-----------|
-------------------------|-------------------------|-------------------------|


                                                                           
--0----------0-----0-----|--3----3---------------|---------------0--------|
--0-------3-----------3--|--3----3--3--1--1------|---------------1--------|
--1----4-----------------|--5----5--4--3--2------|---------------0--------|
--0----------------------|--5----------3--3------|--3/5---3-2-0--2--------|
--2----------------------|--3--------------------|--3/5---3-3-3--3--------|
--0-------------4--------|--3--------------------|------------------------|


            
----------||
----------||
----------||
----------||
----------||
----------||
            
Submit corrections

comments powered by Disqus
↑ Back to top | Rolling Stones Tabs for Angie. Lyrics for acoustic guitar and electric guitar. 1 Tablatures and chords are parodies/interpretations of the original songs. You may use it for private study, scholarship, research or language learning purposes only