>
 >
Angie Complete

Angie Complete Guitar Tabs

Rolling Stones - Angie Complete chords, tabs, tablatures, lyrics

Guitar lessons | Add/correct | Request | Top 50 tabs Artists:  A B C D E F G H I J K L M N O P Q R S T U V W X Y Z 0-9

Angie Complete Guitar Tabs – Rolling Stones

CD, Sheet music, Poster

Do you like Angie Complete? Share with your friends now
Tabs
E|-------------------------|-0--0--0-----3p0----------|
B|-------------------------|-1-----1-----1-----1------|
G|-------------------------|-2-----2---------2--------|
D|-------------------------|-2---------2---------2-2--|
A|----------{12}-----------|--------------------------|
E|-------------------------|--------------------------|

|--------0-----------0-----|--------3-------------1---|
|------3---3-----3---------|------3---3-------------1-|
|----4-------4---4-----4-0-|----5-------5---3--2------|
|--------------------------|-5------------5-3--3------|
|--------------------------|--------------------------|
|-0------------4-----------|--------------------------|

                                 (verse)
                                  Angie 
|-----1-----------0--------|-----0---------5-5-5-3----|
|-----------1-----1-----1--|-----1---------5-5-5-3----|
|---2---------0-----------0|-----------------------5--|
|-3-------3---2-------0----|-2----------2-------------|
|-------3-----------2------|-0------------------------|
|--------------------------|--------------------------|


           Angie            when will those clouds all disappear
|-----------0---0---0------|----3--3------------------|
|---------3---3-3---3------|----3--3------------------|
|-------4-------4----------|----5--5-----3--2---------|
|--------------------------|-5--------0--3--3---------|
|--------------------------|-----------------------3--|
|-0------------------------|--------------------------|

                            Angie
|------0-------------------|---------------5-5-5-3----|
|--1-----------------------|---------------5-5-5-3----|
|--0--------0-----------0--|-------2---------------5--|
|---------3-0h2----2-------|------------2-------------|
|---------3-3---------2----|--0-----------------------|
|--------------------------|--------------------------|

 Angie                      where will it lead us from 
|------0--0----0-------0---|--------3-----------------|
|------3---------3---3-----|--------3--3--------------|
|------4----4------4-----0-|-----5--5--4--3--2--------|
|--------------------------|--5--------0--3--3--------|
|--------------------------|-----------------------3--|
|--0-----------------------|--------------------------|

                           (chorus)
her                With no  lovin' in our souls and no
|-----0------------0--0----|5-5-5-5-5-5-5-5-5-5-5-3-3-3-X|
|---------------------1--0-|3---3---3---3---3---3-3-3-3--|
|--0----------0----------0-|------------4---4------------|
|--3----------2------------|------------5---5------------|
|-------------3------------|-----------------------------|
|--------------------------|-----------------------------|

 money in our coats         you can't say we're satisfied 
|---1-1-X-0---0---0------0-|---3-3-3-3-3-0---3-3-3-1--|
|---3-3-X-1-----1----------|---1---1-1-1-0---1--------|
|---2-----------2---2------|---0---0---0---2---------X|
|-0---------2---2---2--2---|---2-------2---3---------X|
|-----------0----------0---|3----------3--------------|
|--------------------------|--------------------------|
                       
                             Angie       
|-5-5-5-5-5-5-3-5-3-5p3----|--------5-5-5-5-5-3-------|
|-3---3---3---3-3-3-3------|--------5-5-5-5-5-3---3-5-|
|-------------4---4-4------|--------------------5-3-5-|
|-----------------------5--|--------------------------|
|--------------------------|-0------------------------|
|--------------------------|--------------------------|

 Angie                      you can't say we never tried
|--------0-0------0--0-----|-----3--3-----------------|
|--------3--------2--3--3--|-----3--3--3--------------|
|--------4--------3--4--4--|-----5--5--4--3--2--------|
|--------------------------|--5-----5--5--3--3--------|
|--------------------------|--------------------------|
|-0------------------------|--------------------------|
                             
                          (verse 2)
                            Angie                 you're
|--------------------------|---------------5-5-5-3----|
|--------------------------|---------------5-5-5-3-5--|
|--------------------------|-----------------------5--|
|-3-----3--2---------------|-2------------------------|
|-3-----3--3---------------|-0------------------------|
|--------------------------|--------------------------|

 beutiful        yes        but ain't it time we said good
|-----------0---0----0-0---|--------------------------|
|---------3-----3----3-3---|----3--3--3---------------|
|---------4---4------------|-4--5--5--4--3--2---------|
|--------------------------|-5--5--5--5--3--3---------|
|--------------------------|-----------------------3--|
|-0------------------------|--------------------------|

|-----------------0--------|-------0--------5--5-3----|
|-----------------1--------|----------------5--5-3-5--|
|-----0--------------------|-----------------------5--|
|--3-----3--0h2---------0--|--2-----------------------|
|--3--------3--------2-----|--0-----------------------|
|--------------------------|--------------------------|

 I still love ya            Remember all those nights we
|---------0--------0-------|--------------------------|
|-------3-----3----3----0--|----3--3--3---------------|
|-------4-----4----4--4----|-4--5--5--4--3--2---------|
|--------------------------|-5--5--5-----3--3---------|
|--------------------------|-----------------------3--|
|--0-----------------------|--------------------------|
                            
                            (chorus)
cried           All those dreams we held so close seemed to all 
|------0----------0--------|-5-5-5-5-5-3-5-5-5-3---3--|
|--1--------------1--------|-3-3---3-3---3---3-3---3--|
|--0-----------------------|-4-----4-----4---4-----4--|
|--3------3--2----------0--|-5-----5-----5---------5--|
|---------3--3-------2-----|--------------------------|
|--------------------------|--------------------------|


    go up in smoke           let me whiper in your ear 
|-----1-1-----------0-0----|-----3-3--3------3-3--3---|
|-----3----3----------1----|-----1----1------1------1-|
|-----2------2----2--------|-----0---------2--------2-|
|--0------------2----------|------------2--3--------3-|
|---------------0-------0-2|--3---------3-------------|
|--------------------------|--------------------------|

                             Angie
|------5-5-3---5-3---X5-3-3|p0----5-5-5-5-5-3---------|
|------3-3-3---3-----X-----|------5-5-5-5-5-3-5-------|
|----4--------------4------|------------------5-------|
|----5------------5--------|--------------------------|
|--------------------------|--------------------------|
|--------------------------|--------------------------|

 Angie                      where will it lead us from  
|------0----0-0------------|----3--3--------1---------|
|------3------3------------|----3--3--3-----1---------|
|------4------4----------4-|----5--5--4--3--3---------|
|--------------------------|-5-----5--5--3--3---------|
|--------------------------|--------------------------|
|--------------------------|--------------------------|
 
                             .............interlude
 here
|--------------------------|---------5-5-5-3----------|
|--------------------------|---------5-5-5-3-5--------|
|----------------------0-0-|-----------------5--------|
|-3-----3--2-----------0---|-2------------------------|
|-3--------3---------------|-0------------------------|
|--------------------------|--------------------------|

|----------0---------------|--------------------------|
|--------3---2-3-----------|-----3--3-----------------|
|--------4---3-4--------4--|-----5--5--4--3--2--------|
|--------------------------|--5--5--5--5--3--3--------|
|--------------------------|--------------------------|
|-0------------------------|--------------------------|

|-------0---------0--------|------5-5-5-5-5-3---------|
|-----------------1--------|------5-5-5-5-5-3-5----5--|
|-----------------------0--|------------------5----5--|
|-3---------0h2------------|-2------------------------|
|-3---------3--------2-----|-0------------------------|
|--------------------------|--------------------------|

|----------0-----0---------|--------------------------|
|--------3---3---3---------|-----3--3--3--1--1--------|
|--------4-----4-4---------|-----5--5--4--3--2--------|
|--------------------------|-----5--5--5--3--3--------|
|--------------------------|--------------------------|
|--------------------------|--------------------------|
                              
                            (chorus)
                            Angie don't you weep all your
|---------0----------------|5-5-5-5-5-5-5-5-5-5-5-5-5-3-3|
|---------1--1-------------|3---3-3-3---3---3---3---3---3|
|-0-------0--0-------------|--------4---4---4---4---4---4|
|-3-------3--2-------------|--------5-------5-----------5|
|-3-------3--3-------------|-----------------------------|
|--------------------------|-----------------------------|

kisses still tast sweet       I hate that sadness in your eyes
|---1-1---1-0-0---0-0-0---0|-----3-3--3-3-----3-3-3-3-|
|---3-3---3-0-1---1--------|-----1------1-----1-----1-|
|---2---2---0-----------2--|---0-----------2--2-----2-|
|0--------------2----------|-2-------------3--------3-|
|---------------0----------|-3------------------------|
|--------------------------|--------------------------|

                     But    Angie
|------5-3-5-5p3-5-----5-5-|----5-5-5-5-5-5-5-3-------|
|------3---------3-----3-3-|----5-5-5-5-5-5-5-3-5-----|
|---4------------4-4-4-4-4-|--------------------5-----|
|-5----------------5-5-5-5-|--------------------------|
|--------------------------|-0------------------------|
|--------------------------|--------------------------|

 Angie                         ain't it time we say good  
|--------0----------0------|--------------------------|
|----3-3-3------3-3-3------|----3--3--3---------------|
|----4-4-4------4-4-4------|----5--5--4--3--2---------|
|--------------------------|-5--5--5--5--3--3---------|
|--------------------------|--------------------------|
|--------------------------|--------------------------|

                            .....yet another interlude
Bye                         yeah
|------0----------0--------|---------------5-5-5-3----|
|-----------------1--------|---------------5-5-5-3--5-|
|---0----------------------|------------------------5-|
|---3-----2-------------0--|--------------------------|
|---3-----3----------2-----|-0------------------------|
|--------------------------|--------------------------|

|-----0-----0--0-------0---|--------------------------|
|---3---3---3----3---3---0-|-------3--3---------------|
|---------4-4------4-------|-4--5--5--4--3--2---------|
|--------------------------|-5-----5-----3--3---------|
|--------------------------|--------------------------|
|-0------------------------|--------------------------|


                            (chorus)
                   With no  lovin in our souls and no
|----0--------------0------|5-5-5-5-5-5-5-5-5-5-5-5-5-5-X|
|-------------------X--3-3-|3---3---3---3---3-------3---X|
|-0-------------0---0--4-4-|----4-----------4-------4---X|
|-2-------3p2-0h2---X--5-5-|----------------5-------5----|
|-3-------------3---X------|-----------------------------|
|--------------------------|-----------------------------|

money in our coats            uh, you can't say we're satisfied
|------------------0-0-----|----3-3--3-------3------3-|
|----3-----0h1-----1-------|----1----1-------1-1-1--1-|
|----2--X--0h2--2-----2---0|----0---------2--2---2----|
|-0-----X-------2-------0--|-2---------2--3------3----|
|--------------------------|-3---------3--------------| 
|--------------------------|--------------------------|

                             (bridge)
                        But angie  I still love you baby
|----5-5-5-3---5-3-----5-0-|----1-1--1--1----1-1-----0|
|--------3---3-3-3-----3-0-|-3----3--3--3--3---3--0---|
|-4--------------4---4-4---|-2----2-----2--2---2--0---|
|-5----------------5---5---|-0--------------------0---|
|--------------------------|--------------------------|
|--------------------------|--------------------------|

                           Every were I look i see you eyes
|-----0-0-0-0-0-0-0-0-0-0-0|---1-1----0-X-----1------0|
|-----1-----1-----1-----0-0|-3-3-3----3-------3----0--|
|--------------------------|-2-2-----------2--2----0--|
|-2------------------------|-0---------------------0--|
|-0------------------------|--------------------------|
|--------------------------|--------------------------|

                             there ain't  a woman that comes
|-----0----0-----------0-0-|--1-1-1------1-0-1-1---0-0|
|-----1----------------0---|--3---3--2---3---3-3---0-0|
|--------2------2---2------|X-----2------------2---0-0|
|-2------2------2---2------|0-------------------------|
|-0-----------0------------|--------------------------|
|--------------------------|--------------------------|

clost to you               come on baby dry  you eyes
|----------0---0-0---0-----|---3-3--3--------3-3------|
|--------------1-----------|---1-1--1--------1---1--X-|
|-----2--2---------2-------|---0----------2--2------X-|
|-2---2--2---------2-------|-2-2------2-2-3---------X-|
|-0---0------------0---0-2-|-3--------3---------------|
|--------------------------|--------------------------|

                           (verse 3)
                            Angie
|---5-5-5-3----3-3----5p3-3|---------5-5-5-3----------|
|-3-3---3-3----3-3----3---3|---------5-5-5-3-5--------|
|-4----------4-4----4-----4|-----------------5--------|
|-5------------5----5-----5|--------------------------|
|--------------------------|-0------------------------|
|--------------------------|--------------------------|


Angie                        aint it good to be alive?
|--------0------0-------0--|--------------------------|
|--------3--------3---3----|-----3--3--3--1--1--------|
|--------4----------4------|-----5--5--4--3--2--------|
|--------------------------|--5-----5--5--3--3-----3--|
|--------------------------|--------------------------|
|-0------------------------|--------------------------|

                            Angie
|-------0------------------|------5-5---5---3---------|
|--------------------------|------5-5---5---3---------|
|-0------------0-----------|--------------------------|
|-3---------3--2---2-------|--------------------------|
|-3---------3------3--2----|-0------------------------|
|--------------------------|--------------------------|

Angie                       they can't say we never tried
|--------0-0--0----0-------|--------------------------|
|--------3----3------3---0-|-----3--3--3--1--1--------|
|-------------4--------4---|-----5--5--4--3--2--------|
|--------------------------|--5--5--5--5--3--3--------|
|--------------------------|-----------------------3--|
|-0------------------------|--------------------------|
                        
|-0---0--------------------|
|-1------------------------|
|-0-----0--0---------------|
|-3-----3--2---------------|
|----------3---------------|
|--------------------------|





Comments


Popular Rolling Stones tabs & chords
Gimme Shelter 2 Bass Tabs
Live With Me Bass Tabs
If You Can´T Rock Me Chords
Luxury Chords
Pain In My Heart Chords
Tumbling Dice 2 Chords
Jumpin Jack Flash Drum Tabs
No Expectations 2 Tabs
Tumbling Dice 1 Tabs
You Got Me Rockin Tabs


Song lyrics



↑ Back to top | Tablatures and chords are parodies/interpretations of the original songs. You may use it for private study, scholarship, research or language learning purposes only
© 2014 AZChords.com Contact us | Privacy policy | DMCA | Add/correct tabs | Request tabs | Top 50 tabs