>
 >
Way To Go!

Way To Go! Guitar Tabs

Rogue Traders - Way To Go! chords, tabs, tablatures, lyrics

Guitar lessons | Add/correct | Request | Top 50 tabs Artists:  A B C D E F G H I J K L M N O P Q R S T U V W X Y Z 0-9

Way To Go! Guitar Tabs – Rogue Traders

CD, Sheet music, Poster

Do you like Way To Go!? Share with your friends now
ChordsTabsTabs v2
                            Way to go - Rouge Traders


This is my first tab so go easy, also ROGUE TRADERS ARE AWESOME!!!! 
THEY ROCKED IN MELBOURNE SUPPORTING THE LIVING END AS WELL DOWN AT Melbourne's Federation Square 
GO GUYS! 

Tuning: Drop D

Intro

G|------------------------------------------|
D|------------------------------------------|     Bass Line Intro x1
A|------------------------------------------|
D|--5-5-5-5--7-7--2-----7-7-7-7--5-0--2-----|

Then Guitar After Bass line

e|------------------------12---12---12---------------------------6-6-6-------|
B|---------------------------------------------------------------------------|
G|--------------------9-----9----9----9--------------------------------------|
D|-5-5-5-5--7-7--2------------------------7-7-7-7--5--0--2-------------------|
A|-5-5-5-5--7-7--2------------------------7-7-7-7--5--0--2-------------------|
D|-5-5-5-5--7-7--2------------------------7-7-7-7--5--0--2-------------------|


Drive fast, don't crash 
Make your money, make it last 
Hang tight, kick back 
Prepare yourself for the attack 
Buy low, sell high 
Take your pills, tell your lies 
Fake your tan, wear a tie 
Go to the gym, you'll never die 

(Then the Bridge is)

e|-----------|          |----------------6-6-6---------|
B|-----------|          |------------------------------|
G|-7-6-7-6-7-|          |-7-6-7-7-8-9------------------|
D|-7-6-7-6-7-|twice then|-7-6-7-7-8-9------------------| x2
A|-5-4-5-4-4-|          |-5-4-5-5-6-7------------------|
D|-----------|          |------------------------------|
                                And that's the way to go 


Chorus is the same as the verses

e|------------------------12---12---12---------------------------6-6-6-------|
B|---------------------------------------------------------------------------|
G|--------------------9-----9----9----9--------------------------------------|
D|-5-5-5-5--7-7--2------------------------7-7-7-7--5--0--2-------------------| 
A|-5-5-5-5--7-7--2------------------------7-7-7-7--5--0--2-------------------|
D|-5-5-5-5--7-7--2------------------------7-7-7-7--5--0--2-------------------|

Fake it baby, they won't even know 
You can make it 
Cause everybody knows that's the way to go 
Uh-huh 
Cause everybody knows that's the way to go 



(Second verse is the same as the first)



Do in, drop out 
Raise your voice, never shout 
Find your true love on the couch 
This is what it's all about 
Change your face, keep your name 
Keep it cool and play the game 
Don't you know they're all the same 
Don't you know they're all the same 

Bridge is same

And that's the way to go 
And that's the way to go (to go) 

Chorus

e|------------------------12---12---12---------------------------6-6-6-------|
B|---------------------------------------------------------------------------|
G|--------------------9-----9----9----9--------------------------------------|
D|-5-5-5-5--7-7--2------------------------7-7-7-7--5--0--2-------------------|           x1
A|-5-5-5-5--7-7--2------------------------7-7-7-7--5--0--2-------------------|
D|-5-5-5-5--7-7--2------------------------7-7-7-7--5--0--2-------------------|

Fake it baby, they won't even know 
You can make it 
Cause everybody knows that's the way to go 
Fake it baby, they won't even know 
You can make it 
Cause everybody knows that's the way to go 

(The interlude is a bit weird but this sounds okay to me)

Play this over a simple D power chord 
e|--------------------------------------------------------------------------------|
B|--------------------------------------------------------------------------------|
G|---4-4-4-4-5-5-5-5-6-6-6-6-7-7-7-7-8-8-8-8-9-9-9-9-10-10-10-10-11-11-11---------|
D|--------------------------------------------------------------------------------|           x1
A|--------------------------------------------------------------------------------|
D|--------------------------------------------------------------------------------|

then intro again

G|------------------------------------------|
D|------------------------------------------|    
A|------------------------------------------|
D|--5-5-5-5--7-7--2-----7-7-7-7--5-0--2-----|


e|------------------------12---12---12---------------------------6-6-6-------|
B|---------------------------------------------------------------------------|
G|--------------------9-----9----9----9--------------------------------------|
D|-5-5-5-5--7-7--2------------------------7-7-7-7--5--0--2-------------------|
A|-5-5-5-5--7-7--2------------------------7-7-7-7--5--0--2-------------------|
D|-5-5-5-5--7-7--2------------------------7-7-7-7--5--0--2-------------------|

Think deep, fly low 
Celebrate a tv show 
Raise the stakes, drop the pressure 
Happiness you'll never measure 
Bite your tongue, pay the man 
Time to start your 5 year plan 
Holiday in Vietnam 
Then blow a kiss to Uncle Sam 

[Bridge]

And that's the way to go 
And that's the way to go (to go) 

[Chorus]
Fake it baby, they won't even know 
You can make it 
Cause everybody knows that's the way to go 
Cause everybody knows that's the way to go 
Uh-huh 
That's the way to go 
Cause everybody knows that's the way to go 
And that's the way to go (to go) 

Outro

G|------------------------------------------|
D|------------------------------------------|    
A|------------------------------------------|
D|--5-5-5-5--7-7--2-----7-7-7-7--5-0--2-----|
Buy low, sell high 
Take your pills, tell your lies 
Fake your tan, wear a tie 
Go to the gym, you'll never die

Fade Out
===============================================================================





Comments


Popular Rogue Traders tabs & chords
Casting Aside Chords
Way To Go! Chords
What You're On Chords
Don't You Wanna Feel Tabs
Fashion Tabs
I Never Liked You Tabs
I Never Liked You Intro Tabs
The Price We Pay Tabs
Throw Your Arms Around Me Intro Tabs
Way To Go! 1 Tabs


Song lyrics



↑ Back to top | Tablatures and chords are parodies/interpretations of the original songs. You may use it for private study, scholarship, research or language learning purposes only
© 2014 AZChords.com Contact us | Privacy policy | DMCA | Add/correct tabs | Request tabs | Top 50 tabs