» » »

Way To Go Tabs (ver.2)

Artists:  A B C D E F G H I J K L M N O P Q R S T U V W X Y Z # 

Way To Go Tabs (ver.2)

Rogue Traders
Rating:
0/5 (0 votes)

Hard to play? Try these video lessons and learn fast.
                + + + + + + + + + + + + + + + + + + + + + + + + + + + + + +
+                                                         +
+              ROGUE TRADERS - WAY TO GO! v1              +
+                                                         +
+ + + + + + + + + + + + + + + + + + + + + + + + + + + + + +


\ = slide down
/ = slide up
. = palm mute/silence



[INTRO 1 / 0:00]
e|------------------------------------------|
B|------------------------------------------|
G|------------------------------------------|
D|------------------------------------------|
A|------------------------------------------|
D|--5-5-5-5-7-7--2.-------7-7-7-7-5-0--2.---|



[INTRO 2 / 0:06] x2
e|------------------------------------------|
B|------------------------------------------|
G|------------------------------------------|
D|--5-5-5-5-7-7\2.------2-7-7-7-7-5-0--2.---|
A|--5-5-5-5-7-7\2.------2-7-7-7-7-5-0--2.---|
D|--5-5-5-5-7-7\2.------2-7-7-7-7-5-0--2.---|



[VERSE 1 / 0:24]
e|------------------------------------------|
B|------------------------------------------|
G|------------------------------------------|
D|--5-5-5-5-7-7\2.------2-7-7-7-7-5-0--2.---|
A|--5-5-5-5-7-7\2.------2-7-7-7-7-5-0--2.---|
D|--5-5-5-5-7-7\2.------2-7-7-7-7-5-0--2.---|



[PRECHORUS / 0:31] x2
e|-----------------------------------------------------|
B|-----------------------------------------------------|
G|-----------------------------------------------------|
D|--7-7-7-7.--7.--7-7-7-7-7.--7.--7-7-7-7-7.--8.--9.---|
A|--5-5-5-5.--5.--5-5-5-5-5.--5.--5-5-5-5-5.--6.--7.---|
D|-----------------------------------------------------|



[CHORUS / 0:43] x3
e|------------------------------------------|
B|------------------------------------------|
G|------------------------------------------|
D|--5-5-5-5-7-7\2.------2-7-7-7-7-5-0--2.---|
A|--5-5-5-5-7-7\2.------2-7-7-7-7-5-0--2.---|
D|--5-5-5-5-7-7\2.------2-7-7-7-7-5-0--2.---|



[VERSE 2 / 1:08]
e|------------------------------------------|
B|------------------------------------------|
G|------------------------------------------|
D|--5-5-5-5-7-7\2.------2-7-7-7-7-5-0--2.---|
A|--5-5-5-5-7-7\2.------2-7-7-7-7-5-0--2.---|
D|--5-5-5-5-7-7\2.------2-7-7-7-7-5-0--2.---|



[PRECHORUS / 1:15] x2
e|-----------------------------------------------------|
B|-----------------------------------------------------|
G|-----------------------------------------------------|
D|--7-7-7-7.--7.--7-7-7-7-7.--7.--7-7-7-7-7.--8.--9.---|
A|--5-5-5-5.--5.--5-5-5-5-5.--5.--5-5-5-5-5.--6.--7.---|
D|-----------------------------------------------------|



[CHORUS / 1:27] x4
e|------------------------------------------|
B|------------------------------------------|
G|------------------------------------------|
D|--5-5-5-5-7-7\2.------2-7-7-7-7-5-0--2.---|
A|--5-5-5-5-7-7\2.------2-7-7-7-7-5-0--2.---|
D|--5-5-5-5-7-7\2.------2-7-7-7-7-5-0--2.---|



[PRE-VERSE / 1:59]
e|------------------------------------------|
B|------------------------------------------|
G|------------------------------------------|
D|------------------------------------------|
A|------------------------------------------|
D|--5-5-5-5-7-7--2.-------7-7-7-7-5-0--2.---|



[VERSE 2 / 2:11]
e|------------------------------------------|
B|------------------------------------------|
G|------------------------------------------|
D|--5-5-5-5-7-7\2.------2-7-7-7-7-5-0--2.---|
A|--5-5-5-5-7-7\2.------2-7-7-7-7-5-0--2.---|
D|--5-5-5-5-7-7\2.------2-7-7-7-7-5-0--2.---|



[PRECHORUS / 2:18] x2
e|-----------------------------------------------------|
B|-----------------------------------------------------|
G|-----------------------------------------------------|
D|--7-7-7-7.--7.--7-7-7-7-7.--7.--7-7-7-7-7.--8.--9.---|
A|--5-5-5-5.--5.--5-5-5-5-5.--5.--5-5-5-5-5.--6.--7.---|
D|-----------------------------------------------------|



[CHORUS / 2:30] x4
e|------------------------------------------|
B|------------------------------------------|
G|------------------------------------------|
D|--5-5-5-5-7-7\2.------2-7-7-7-7-5-0--2.---|
A|--5-5-5-5-7-7\2.------2-7-7-7-7-5-0--2.---|
D|--5-5-5-5-7-7\2.------2-7-7-7-7-5-0--2.---|



[PRE-VERSE / 2:55] x2
e|------------------------------------------|
B|------------------------------------------|
G|------------------------------------------|
D|------------------------------------------|
A|------------------------------------------|
D|--5-5-5-5-7-7--2.-------7-7-7-7-5-0--2.---|



+ + + + + + + + + + + + + + + + + + + + + + + + + + + + + +
+                                                         +
+  Rogues fans, enjoy! =]                                 +
+                                                         +
+ + + + + + + + + + + + + + + + + + + + + + + + + + + + + +
            
Hard to play? Try these video lessons and learn fast. | Correct




comments powered by Disqus
↑ Back to top | Tablatures and chords are parodies/interpretations of the original songs. You may use it for private study, scholarship, research or language learning purposes only