» » »

Little Wonders Tabs (ver.3)

Artists:  A B C D E F G H I J K L M N O P Q R S T U V W X Y Z # 

Little Wonders Tabs (ver.3)

Rob Thomas
Rating:
0/5 (0 votes)

Hard to play? Try these video lessons and learn fast.
                intro

e---9-999-5---9-999-7--------5-555-------------|
B----------------------------------5-----------|
G----------------------------------------------|
D----------------------------------------------|
A----------------------------------------------|
E----------------------------------------------|




Chorus:

e--------12------12-----12----12-----9------9--|
B---10-------10------9-----9------7------7-----|
G----------------------------------------------|
D----------------------------------------------|
A----------------------------------------------|
E----------------------------------------------|x2

Verse 2:

e------------------------------------------------|
B-------12-12-------12-------12-------12-12---10-|
G---9------------9--------9--------9-------------|
D------------------------------------------------|
A------------------------------------------------|
E------------------------------------------------|x2

Bridge:

e---10---9---7---------7--9-------------12---9--|
B-----------------------------------------------|
G-----------------------------------------------|
D-----------------------------------------------|
A-----------------------------------------------|
E-----------------------------------------------|

End:

e---9-----9-7--------------------------------7-9-|
B-----10--------10-----10---------7-9-10---------|
G--------------------9-------9-7-----------------|
D------------------------------------------------|
A------------------------------------------------|
E------------------------------------------------|
            
Hard to play? Try these video lessons and learn fast. | Correct




comments powered by Disqus
↑ Back to top | Tablatures and chords are parodies/interpretations of the original songs. You may use it for private study, scholarship, research or language learning purposes only