» » »

Rob Thomas, Mockingbird Tabs (ver.1)

Artists:  A B C D E F G H I J K L M N O P Q R S T U V W X Y Z # 

Mockingbird Tabs (ver.1)

Rob Thomas Tabs
 Rating:
4.3/5 (6 votes)
Mockingbird lessons Tabs too difficult? Try these video lessons and learn fast
1
                Lead Guitar
Riff played throughout song
(You can play it in the two ways I tabbed it.  You
can either play it with the single high note or you
can octave it.  Whichever sounds good.  I prefer the
octave)
e-------------------    ------------------|
b-------------------    ------------------|
g------------------- or ------------------|
d--9-10--9-9-9-9-10-    -9-10--9-9-9-9-10-|
a-------------------    -x--x--x-x-x-x--x-|
e-------------------    -7--8--7-7-7-7--8-|

Rhythm Intro/Verses
e-----------------------------------|
b-----------------------------------|
g-5555555555555555-2222222222222222-|
d-5555555555555555-3333333333333333-|
a-3333333333333333-3333333333333333-|
e------------------1111111111111111-|

Pre-Chorus
e-----------------|
b-----------------|
g-4~--2~--4~--2~--|
d-5~--3~--5~--3~--|
a-5~--3~--5~--3~--|
e-3~--1~--3~--1~--|

Chorus
e---------------------------------------------------------------------|
b---------------------------------------------------------------------|
g-5555555555555555-4444444444444444-6666666666666666-2222222222222222-|
d-5555555555555555-5555555555555555-7777777777777777-3333333333333333-|
a-3333333333333333-5555555555555555-7777777777777777-3333333333333333-|
e------------------3333333333333333-5555555555555555-1111111111111111-|

Bridge
Rhythm
e-----------------------------------|
b-----------------------------------|
g-4444444444444444-2222222222222222-| several
d-5555555555555555-3333333333333333-|  times
a-5555555555555555-3333333333333333-|
e-3333333333333333-1111111111111111-|

Piano
Bridge
e------3-------      ------3-5-----|
b--5-----6-5-3-      --5-------5-3-|
g----5---------  3x  ----5---------|
d-------------- then --------------|
a--------------      --------------|
e--------------      --------------|

Last Chorus
e--3------------|
b----6-5--3-5-6-|
g---------------| several
d---------------|  times
a---------------|
e---------------|
            
Submit corrections

comments powered by Disqus
↑ Back to top | Rob Thomas Tabs for Mockingbird. Lyrics for acoustic guitar and electric guitar. 1 Tablatures and chords are parodies/interpretations of the original songs. You may use it for private study, scholarship, research or language learning purposes only