>
 >
Big Log

Big Log Bass Tabs

Robert Plant - Big Log chords, tabs, tablatures, lyrics

Guitar lessons | Add/correct | Request | Top 50 tabs Artists:  A B C D E F G H I J K L M N O P Q R S T U V W X Y Z 0-9

Big Log Bass Tabs – Robert Plant

CD, Sheet music, Poster

Do you like Big Log? Share with your friends now
Bass TabsChordsChords v2TabsUkulele
In this tab, there are a few notes to help you read what I've done. In
several measures there are asterisks (*). Immediately below these are a
couple of note names. Play these two notes in order as written as 16th
notes. I tried to keep the tab so that the measures keep their flow (8
dashes per measure indicating space for eighth notes) while at the same time
allowing the tab to be printed on one page without "wrapping around" and
distorting the printout. Some measures where there were more than a couple
of 16th notes needed to be expanded, and those are written below.

On a similar note, there are some triplets in there, written as ~3~ above
the measure. Play these three notes in the space of one beat.

Also, as with several of my tabs, there are some letters placed in the tab
lines. Count these like hexadecimal, in that A is the tenth fret, B is the
11th, C the twelfth, etc. Again, I did this to try to keep the tab as linear
as possible, since double-digits would expand the measure and I have a hard
time reading them when they're not linear. That's just me, though. :)

[INTRO]
           Am       Am               Am       Am
G:--------|--------|----------------|--------|--------|
D:------0-|------0-|--------------0-|--------|--------|
A:----03-0~0---03-0~0-----------03-0~0~~~~~~~~~~~~~~~~|
E:---1----|---1----|----------1-----|--------|--------|
                    1 + 2 + 3 + 4 +

  Am       Am       G        G        Dm       Dm       F        F
G:--------|--------|--------|--------|--------|--------|--------|--------|
D:---*----|---*----|--------|--------|0---00--|0---00--|--------|--------|
A:0---00-0|0---00-0|---*----|---*----|---0---0|---*--0-|---*---3|---3----|
E:--------|--------|3---33-3|3---33-3|--------|--------|1---11--|1---11-1|
     DE       DE       CD       CD                CA       BbC

  Em       Em       Dm       Dm       Am       Am       Am
G:--------|--------|--------|--------|--------|--------|-----------|
D:--------|--------|0---00--|0-------|------0-|------0-|------0----|
A:--------|--------|---0---0|--------|----03-0~0---03-0~0---03-0~0-|
E:0---00-0|0---00-0|--------|---A/CA8|5--1----|---1----|---1-------|
                               ~slide~~

[VERSE]
  Am                              Am
    My love is in league with the freeway
      Dm                       Dm
  Its passion will ride as the cities fly by
          G                          G
  And the taillights dissolve in the coming of light
          Am           F              G
  And the questions in thousands take flight

  Am       Am       Dm       Dm       G         G         Am  F    G
                                        ~3~       ~3~
G:--------|--------|--------|--------|---------|---------|--------|----------|
D:---*----|---*----|0---00--|0---00--|----0----|----0----|--------|------0---|
A:0---00--|0---00-0|---0---0|---0---0|--02-00--|--02-00--|0--0----|----03-0~-|
E:-------0|--------|--------|--------|33-----3-|-3-----3-|----1--1|3--1------|
     DE       DE

  Am                      Am
  My love is miles in the waiting
      Dm                           Dm
  The eyes that just stare and the glance at the clock
          G                         F                             F
  And the secret that burns and the pain that grows dark and it's you once again

  Am       Am       Dm       Dm       G       F          F
                                        ~3~
G:--------|--------|--------|--------|---------|--------|--------|
D:---*----|---*----|0---00--|0---2233|5---0----|--------|--------|
A:0---00--|0---00-0|---*---0|--------|--02-00--|-------3|-------3|
E:-------0|--------|--------|--------|-------31~1---11--|1---11--|
     DE       DE       CA

  Fm7/Eb       C#maj7        Cm7           F
    Leading me on               Leading me down the road
                 (Leading me on)
  Fm7          C#maj7        Cm7           F
    Driving me on               Driving me down the road
                 (Driving me on)

  Fm7/Eb   Dbmaj9   Cm7      F        Fm7/Eb   Dbmaj9   Cm7      F
G:--------|--------|--------|--------|--------|--------|--------|---------25-2---|
D:--------|--------|--------|--------|--------|--------|--------|--------3----53-|
A:66666666|--------|--------|-------3|66666666|--------|--------|----------------|
E:--------|99999999|8888888\\1---11--|--------|99999999|8888888\\1---------------|
                                                                 1 + 2 + 3 + 4 +

[INSTRUMENTAL]
  Cm11     F                Cm11     G      F          G      F
G:--------|---------25-2---|------2-|--------|------2-|0---0---|-------------------|
D:--------|--------3----53-|----03--|--------|----03--|-----0--|--------------0----|
A:3---3333|----------------|3--0----|----55--|---0----|------0-|------------03-0~0-|
E:--------|1---------------|--------|3--3--31~1-------|-------1~1-----1---1--------|
           1 + 2 + 3 + 4 +                                      1 + 2 + 3 + 4 +

  Am7  Am7  Am       Am       G        G        Dm     F          Am       Am
G:----|----|--------|--------|--------|--------|--------|--------|--------|----------|
D:----|----|---*----|--------|--------|--------|0---00-3~3--3--0-|------0-|------0---|
A:0~~~~~~-0|0---00--|0---00-0|---*----|---*----|---0----|----03-0~0---03-0~0---03-0~-|
E:----|----|-------0|--------|3---33-3|3---33-3|--------|--------|---1----|---1------|
               DE                CD       CD

[VERSE]
  Am                     Am
  My love is exceedingly vivid
  Dm                             Dm
   Red-eyed and fevered with the hum of the miles
  G                           G
  Distance and longing     My thoughts do collide
           Am         F            G
  Should I rest for a while at the side?

  Am       Am       Dm       Dm       G         G         Am  F    G
                                        ~3~       ~3~
G:--------|--------|--------|--------|---------|---------|--------|----------|
D:---*----|---*----|0---00--|0---2233|5---0----|----0----|--------|------0---|
A:0---00--|0---00-0|-------0|---0----|--02-00--|--02-00--|0--0----|----03-0~-|
E:-------0|--------|--------|--------|-3-----3-|-3-----3-|----1--1|3--1------|
     DE       DE

  Am                      Am
  Your love is cradled in knowing
  Dm                          Dm
   Eyes in the mirror still expecting they'll come
  G                         G
  Sensing too well when the journey is done
           Am                 Am             Am                Am
  There is no turning back    No    There is no turning back     On the run

  Am       Am       Dm       Dm       G                G
G:--------|--------|-------2|--------|----------------|-------------------|
D:---*----2---*----|0---00--|0---2233|5-----0---------|------------0------|
A:0---00--|0---00-0|--------|--------|----02--0-0-----|----02--0-3---0~~0-|
E:-------0|--------|--------|--------|------------3-3-|--3---1------------|
     DE       DE                      1 + 2 + 3 + 4 +  1 + 2 + 3 + 4 +

  Am       Am      Am               Am
G:--------|-------|----------------|--------|
D:------0-|-----0-|--------------0-|--------|
A:0---03-0~0--03-0~0-----------03-0~0~~~~~-0|
E:---1----|--1----|----------1-----|--------|
                   1 + 2 + 3 + 4 +

[INSTRUMENTAL]
  Am       Am       G        G        Dm       Dm       F        F
G:--------|--------|--------|--------|--------|--------|--------|--------|
D:-------2|---*----|--------|--------|0---00--|0---0022|--------|--------|
A:0---00--|0---005-|---*----|---*----|---0---0|---*----|---3---3|---3----|
E:---*----|--------|33--33-3|3---33-3|--------|--------|1---11--|1---11-1|
     EG       DE       CD       CD                CA

  Em       Em       Dm       Dm       Am       Am       Am
G:--------|--------|--------|--------|--------|--------|-----------|
D:--------|--------|00--00--|0--0-20-|------0-|------0-|------0----|
A:------0-|2-3-320-|---0---0|-------3|0---03-0~0---03-0~0---03-0~0-|
E:0-1-3---|--------|--------|--------|---1----|---1----|---1-------|

[CODA]  (Chords repeat to fade, Am x2, Dm x2, G x2) (Bass repeat line and fade)

  Am            Am              Dm         Dm
  My love is in league with the freeway
          G         G                Am                   Am
  Oh, the freeway            And the coming of night time
  Dm      Dm     G         G                         Am        Am
  My love        My love       Is in league with the freeway

  Am       Am       Dm       Dm       G        G        Am (Repeat & Fade...)
G:--------|--------|--------|--------|--------|-----------|
D:---*----|--------|0---00--|0---223-|--------|------0----|
A:0---00--|0---00-0|---0---0|--------|--2-00--|-20-03-0~0-|
E:-------0|--------|--------|--------|33----3-|---1-------|
     DE

January 5th, 2012





Comments


Popular Robert Plant tabs & chords
Like I've Never Been Gone Chords
Satan Your Kingdom Must Come Down Chords
Skip's Song Chords
29 Palms Tabs
Big Log Ukulele
Gone Gone Gone Ukulele
Harms Swift Way Ukulele
In The Mood Ukulele
One More Cup Of Coffee Ukulele
Ship Of Fools Ukulele


Song lyrics



↑ Back to top | Tablatures and chords are parodies/interpretations of the original songs. You may use it for private study, scholarship, research or language learning purposes only
© 2014 AZChords.com Contact us | Privacy policy | DMCA | Add/correct tabs | Request tabs | Top 50 tabs