» » »

Burning Down One Side Tabs (ver.1)

Artists:  A B C D E F G H I J K L M N O P Q R S T U V W X Y Z # 

Burning Down One Side Tabs (ver.1)

Robert Plant
Rating:
1/5 (1 vote)

Hard to play? Try these video lessons and learn fast.
                
Track:  Burning Down One Side


Intro 
   3x                                       
E||------7-7h8p7h8p7-----|------5---------||
B||----8-------------8---|----6-----------||
G||--7-----------------7-|--5-------------||
D||9--------------------/|7--------------/||
A||----------------------|----------------||
E||----------------------|----------------||
   1 . 2 . 3       . 4 .  1 . 2 . 3 . 4 .    
                                               

|------7-7h8p7h8p7-----|7-7-7-7-7-------|
|----8-------------8---|8-8-8-8-8-------|
|--7-----------------7-|7-7-7-7-7-------|
|9--------------------/|9-9-9-9-9-------|
|----------------------|----------------|
|----------------------|----------------|
 1 . 2 . 3       . 4 .  1 . 2 . 3 . 4 .   



  Verse - repeat 2x 
  3x
||----------------|----------------||----------------|----------------|
||5-------8-------|--5-------8---55||5-------8-------|--5-------8-----|
||5---5/7-7-------|--5---5---7---55||5---5/7-7-------|--5---5---7-----|
||5---3/5-5-------|--5---3---5---55||5---3/5-5-------|--5---3---5-----|
||----------------|----------------||----------------|----------------|
||----------------|----------------||----------------|----------------|
  1 . 2 . 3 . 4    1 . 2 . 3 . 4 .   1 . 2 . 3 . 4    1 . 2 . 3 . 4 .
 
                     Slipped through...         


  Break 
  3x                               
||------7-7h8p7h8p7-----|------5---------||
||----8-------------8---|----6-----------||
||--7-----------------7-|--5-------------||
||9--------------------/|7--------------/||
||----------------------|----------------||
||----------------------|----------------||
  1 . 2 . 3       . 4 .  1 . 2 . 3 . 4 .    

 ...yes my poor heart...


                    2x                                  
|----------------||----------------||----------------|
|7-----5---------||--7-x-5---------||--7-x-5---------|
|7-----5---------||--7-x-5---------||--7-x-5---------|
|7-----5---------||--7-x-5---------||--7-x-5-------3/|
|5-----3-------3/||5-5-x-3-------3/||5-5-x-3---------|
|----------------||----------------||----------------|
 1 . 2 . 3 . 4 .   1 . 2 . 3 . 4 .   1 . 2 . 3 . 4 .  

 Try as I might...                                     
 

  4x
||----------------||
||--8-x-6---------||
||--7-x-5---------||
||5-5-x-3---------||
||----------------||
||----------------||
  1 . 2 . 3 . 4 .

  Cause I need...


  3x
||----------------|----------------||----------------|----------------|
||--6-------6-----|----------------||--6-------6-----|----------------|
||--5-5/7-7-5-5/7-|7---------------||--5-5/7-7-5-5/7-|7-------7-------|
||----3/5-5---3/5-|5---------------||----3/5-5---3/5-|5-------5-------|
||----------------|----------------||----------------|----------------|
||----------------|----------------||----------------|----------------|
  1 . 2 . 3 . 4 .  1 . 2 . 3 . 4 .   1 . 2 . 3 . 4 .  1 . 2 . 3 . 4 .

                       I'm looking high...

                                    3x                
|----------------|----------------||----------------||
|----------------|7-----5---------||--7-x-5---------||
|7-7-7-7-7-------|7-----5---------||--7-x-5---------||
|5-5-5-5-5-------|7-----5---------||--7-x-5---------||
|----------------|5-----3-------3/||5-5-x-3-------3/||
|----------------|----------------||----------------||
 1 . 2 . 3 . 4 .  1 . 2 . 3 . 4 .   1 . 2 . 3 . 4 .   



  Guitar under Solo
  2x
||----------------|----------------|------3---------|----------------||
||------7---------|------3---------|----3---3-------|----------------||
||----7-----------|----3-----3-----|--3-------3-----|----------------||
||--7-------------|--3---------3--/|5-----------5---|----------------||
||5---------------|1---------------|----------------|----------------||
||----------------|----------------|----------------|----------------||
  1 . 2 . 3 . 4    1 . 2 . 3 . 4 .  1 . 2 . 3 . 4 .  1 . 2 . 3 . 4 .



|----------------|
|7-7-------------|
|7-7-------------|
|7-7-------------|
|5-5-------------|
|----------------|
 1 . 2 . 3 . 4 .

    
 Solo
|-----------------------------------------------------------------|
|-------------------------------------------------------------4-3v|
|5b7rrrrrr5------3v----------------3v--5p3-5-6-5p3----------------|
|---------------------------5-----------------------------3-5-----|
|-----------------------------------------------------3-5---------|
|---------------------------------------------------6-------------|
    ^
    slow release
            
Hard to play? Try these video lessons and learn fast. | Correct




comments powered by Disqus
↑ Back to top | Tablatures and chords are parodies/interpretations of the original songs. You may use it for private study, scholarship, research or language learning purposes only