» » »

Bad Case Of Loving You Bass tabs (ver.2)

Artists:  A B C D E F G H I J K L M N O P Q R S T U V W X Y Z # 

Bad Case Of Loving You Bass tabs (ver.2)

Robert Palmer
Rating:
0/5 (0 votes)

Hard to play? Try these video lessons and learn fast.
                -----------------------------------------------------------------------------
                             Bad case of loving you - Robert Palmer
-----------------------------------------------------------------------------


Tuning:Standard

This is only made difficult by the speed of the song - Follow the snare drum in the verse

Intro: x2
G|--------------------------------|-------------------------------|
D|--------------------------------|-------------------------------|
A|--------------------------------|----------------------2-4-2----|
E|0-0-0-0-0-0-0-0-0-0-0-0-0-0-0-0-|0-0-0-0-0-0-0-0-0-2-4-------4-2|

Verse: x2

G|--------------------------------|-------------------------------|
D|--------------------------------|-------------------------------|
A|--------------------------------|-------------------------------|
E|0-0-0-0-0-0-0-0-0-0-0-0-0-0-0-0-|0-0-0-0-0-0-0-0-0-0-0-0-0-0-0-0|

G|--------------------------------|-------------------------------|
D|--------------------------------|-------------------------------|
A|--------------------------------|-------------------------------|
E|5-5-5-5-5-5-5-5-7-7-7-7-7-7-7-7-|0-0-0-0-0-0-0-0-0-0-0-0-0-0-0-0|

Chorus: x1

G|--------------------------------|-------------------------------|
D|--------------------------------|-------------------------------|
A|--------------------------------|-------------------------------|
E|0---------------0---------------|0-2-3-5-5-5-5-3-2-0-0-0-0-0-0-0|

G|--------------------------------|--------------------------------|
D|--------------------------------|--------------------------------|
A|--------------------------------|----------------------2-4-2-----|
E|/7-7-7-7-7-7-7-7-0-0-0-0-0-0-0-0|0-0-0-0-0-0-0-0-0-2-4-------4-2-|

Verse: x2

G|--------------------------------|-------------------------------|
D|--------------------------------|-------------------------------|
A|--------------------------------|-------------------------------|
E|0-0-0-0-0-0-0-0-0-0-0-0-0-0-0-0-|0-0-0-0-0-0-0-0-0-0-0-0-0-0-0-0|

G|--------------------------------|-------------------------------|
D|--------------------------------|-------------------------------|
A|--------------------------------|-------------------------------|
E|5-5-5-5-5-5-5-5-7-7-7-7-7-7-7-7-|0-0-0-0-0-0-0-0-0-0-0-0-0-0-0-0|

Chorus: x1

G|--------------------------------|-------------------------------|
D|--------------------------------|-------------------------------|
A|--------------------------------|-------------------------------|
E|0---------------0---------------|0-2-3-5-5-5-5-3-2-0-0-0-0-0-0-0|

G|--------------------------------|--------------------------------|
D|--------------------------------|--------------------------------|
A|--------------------------------|----------------------2-4-2-----|
E|/7-7-7-7-7-7-7-7-0-0-0-0-0-0-0-0|0-0-0-0-0-0-0-0-0-2-4-------4-2-|

Solo: x1

G|--------------------------------|--------------------------------|
D|--------------------------------|--------------------------------|
A|--------------------------------||----------------------2-4-2----|
E|0-0-0-0-0-0-0-0-0-0-0-0-0-0-0-0-|0-0-0-0-0-0-0-0-0-2-4-------4-2-|

G|--------------------------------|-------------------------------|
D|--------------------------------|-------------------------------|
A|--------------------------------|-------------------------------|
E|0-0-0-0-0-0-0-0-0-0-0-0-0-0-0-0-|5-5-5-5-5-5-5-5-7-7-7-7-7-7-6-5|

Bridge: x1

G|--------------------------------|-------------------------------|
D|--------------------------------|-------------------------------|
A|--------------------------------|-------------------------------|
E|5-5-5-5-5-5-5-5-5-5-5-5-5-5-5-5-|5-5-5-5-9-9-9-9-7-7-7-7-8-8-8-8|

Verse: x2

G|--------------------------------|-------------------------------|
D|--------------------------------|-------------------------------|
A|--------------------------------|-------------------------------|
E|0-0-0-0-0-0-0-0-0-0-0-0---------|0-0-0-0-0-0-0-0-0-0-0-0-0-0-0-0|

G|--------------------------------|-------------------------------|
D|--------------------------------|-------------------------------|
A|--------------------------------|-------------------------------|
E|5-5-5-5-5-5-5-5-7-7-7-7-7-7-7-7-|0-0-0-0-0-0-0-0-0-0-0-0-0-0-0-0|

Chorus: x1

G|--------------------------------|-------------------------------|
D|--------------------------------|-------------------------------|
A|--------------------------------|-------------------------------|
E|0---------------0---------------|0-2-3-5-5-5-5-3-2-0-0-0-0-0-0-0|

G|--------------------------------|--------------------------------|
D|--------------------------------|--------------------------------|
A|--------------------------------|----------------------2-4-2-----|
E|/7-7-7-7-7-7-7-7-0-0-0-0-0-0-0-0|0-0-0-0-0-0-0-0-0-2-4-------4-2-|

| /  slide up
| \  slide down
| h  hammer-on
| p  pull-off
| ~  vibrato
| +  harmonic
| x  Mute note
===============================================================================
            
Hard to play? Try these video lessons and learn fast. | Correct




comments powered by Disqus
↑ Back to top | Tablatures and chords are parodies/interpretations of the original songs. You may use it for private study, scholarship, research or language learning purposes only