» » »

Bad Case Of Loving You Tabs (ver.1)

Artists:  A B C D E F G H I J K L M N O P Q R S T U V W X Y Z # 

Bad Case Of Loving You Tabs (ver.1)

Robert Palmer
Rating:
5/5 (1 vote)

Hard to play? Try these video lessons and learn fast.
                
Corrections,questions,complimates,gripes:

Modified tab from:

Robert Palmer - Bad Case of Loving You

Original in German, so only 1/2 translated - hope you can adjust  :)
Some mixed tab notation also

Solos and fills are note-for-note perfect (our German friend only got it 1/2 right)


'primary' chords like this:
  E     D/E    A   B
---------------------------------|
--9-------7----2---4-------------|
--9-------7----2---4-------------|
--9-------7----2---4-------------|
--7-------7----0---2-------------|
---------------------------------|




Intro   2X
---------------------------------|
---------------------------------|
E-E/D---- E ---------------------| 
-------------------5-4-----------|
---------------5-7-----5-7-------|
-------------7-------------0-----|

bridge 1
(E-D  E-D  A  B  E-D)2x

Refrain 1
-------------------------------------------------------------------------|
-------------------------10B12-10B12--10--8---------8--10b12v------------|
Estop - E Estop - A E B ---------------------7--9------------------------| 
-------------------------------------------------------------------------|
-------------------------------------------------------------------------|
-------------------------------------------------------------------------|

bridge 2
(E-D  E-D  A  B  E-D)2x

Refrain 2
------------------------------------------------------------------------------|
-------------------------10^-10^-10^R-8-10^---woowoo----10^-10^-10^R-8--------|
Estop - E Estop - A E B -----------------------------------------------9--12--12--| 
------------------------------------------------5-4---------------------------|
---------------------------------------------5-7---5-7------------------------|
--------------------------------------------7---------0-----------------------|

Solo 1:50
-----------10--12-b-14-r-12----------------------------------------------|
-------12--------------------12------------------------------------------|
--/12-----------------------------12-------------------------------------|
-------------------------------------------------------------------------|
-------------------------------------------------------------------------|
-------------------------------------------------------------------------|
-------------------------------------------------------------------------|

   A
------------------------------12-----------------------------------------|
-----------12-------14-b-15-------15-r-14--12--14------------------------|
--12-/-14------14-----------------------------------14-------------------|
-------------------------------------------------------------------------|
-------------------------------------------------------------------------|
-------------------------------------------------------------------------|

   B                                                              B  Bb  A
------------------------------------------------19v-------------------------|
---------14--15--16--16b18r16--14--16---------------------------------------|
----/16--------------------------------14--16--------16--14--16--16--15--14-|
----------------------------------------------------------------------------|
----------------------------------------------------------------------------|
----------------------------------------------------------------------------|


                                   E                                A
-------------------------------------------------------------------------|
-------------------------------------------------------------------------|
I know you like it ----------------you like it on top--------------------| 
-----------------------2-4B5R4-2-----------------------------------------|
-------------------0-4----------4-------------------------2-4B5R4-2------|
---------------------------------0--------------------0-4-----------4----|

                                            (bend 1/4 step here)   
-------------------------------------------------------------------------|
---------------Harmonics with bend--- 12r10--8-----------------8-10b12v--|
- A - C#m- B ---5----5----5---------------------9b95r9--7-9--------------| 
-------------------------------------------------------------------------|
--0----------------------------------------------------------------------|
-------------------------------------------------------------------------|


Strofe 3
(E-D  E-D  A  B  E-D)2

kleine solo 2de maal 2de maal E-D 02:35
(knock on wood)
          |
-----------------19b21--19b21--19b21r19-p17------------------------------|
---------------------------------------------19b21r19--p17---17---19b21--|
-------------------------------------------------------------------------|
-------------------------------------------------------------------------|
-------------------------------------------------------------------------|
-------------------------------------------------------------------------|


Refrein 3 + einde
-------------------------------6r5-p3----3-------------------------------|
--------------------------------------5----------------------------------|
Estop - E Estop - A E B -------------------------------------------------| 
----------------------------------------------0-1-2----------------------|
--------------------------------------------2----------------------------|
-------------------------------------------------------------------------|

3x stoppen
            
Hard to play? Try these video lessons and learn fast. | Correct




comments powered by Disqus
↑ Back to top | Tablatures and chords are parodies/interpretations of the original songs. You may use it for private study, scholarship, research or language learning purposes only