>
 >
The Road To Mandalay

The Road To Mandalay Guitar Tabs

Robbie Williams - The Road To Mandalay chords, tabs, tablatures, lyrics

Guitar lessons | Add/correct | Request | Top 50 tabs Artists:  A B C D E F G H I J K L M N O P Q R S T U V W X Y Z 0-9

The Road To Mandalay Guitar Tabs – Robbie Williams

CD, Sheet music, Poster

Do you like The Road To Mandalay? Share with your friends now
Bass TabsChordsTabsTabs v2Tabs v3Ukulele
Robbie williams road to mandalay (picking parts)

capo 3 fret  relativ to the capo :


verse

----------------------------1----------------------
----3--------3----------3--------0-----------------
------2--------2------2---2--------2---------------
--0-----0--0-----0--0----------0-------------------
---------------------------------------------------
---------------------------------------------------

------------0---------------------0---0------------
------1------------------1----1---------1----------
--------2-------2---2-----------2---------2--------
----2-----2-------2---2---------------------2------
--0-------------------------0----------------------
---------------------------------------------------

---------------------------------------------------
----3---------3---3-------3--------3--3-----3------
------2---------2---2----------0--------0----------
--0-----0---0-------------2------2--------2--------
----------------------------2----------------------
---------------------------------------------------

--------------------------
--3-----------------------
--1----1------------------
--2-2----2----------------
--------------------------
--------------------------

1 end

-------------0-------------------------------0-0-------------
---3-----------------------3-----------1---------1-------------
---2----2--------------------2-2---------2---------2-------------
----------2----------------------2---------2---------2----------
-----0-------------------------------0----------------------
----------------------------------------------------------

2 end

----------0---------------------0-------------------------
--3---3------3-----3----2---2-------2------------------------------
--2-----2------2--------0-----0-------0--------------------------
--2-2------------2------2-2-------2-----2-------------------------
----------------------------------------------------------
----------------------------------------------------------



pre-chorus

----1------------------------------3-3---3---3---------------
----1--1-----1--------1-----0------0-0-0---0----------------------
---------2---2--2-----2-----0----------------------------------
------------------3-3------------0--------------------------
--3----------------------------0-----------------------------
----------------------------------------------------------


                     ???????????????????????????
----------------------------------------------------------
-------------1---------------------------------------------
--0-0------0-------------------------------------------------
--2-2----2---------------------------------------------------
--3-3--3-----------------------------------------------------
----------------------------------------------------------


                                 ??????????????????????????
------------------------------0----------------------------
------1-----1-----1-----1-------------------------------------
--------0-----0-----0-----0-----------------------------------
----2-----2-----2-----2-----2----------------------------------
--3--------------------------------------------------------
----------------------------------------------------------


???????????????????????????
--------------------------------3--------------------------
--------------------------------3--------------------------
--------------------------------0--------------------------
--------------------------------0--------------------------
--------------------------------2--------------------------
--------------------------------3--------------------------





Comments


Popular Robbie Williams tabs & chords
Supreme Bass Tabs
Hot Fudge Chords
Often Chords
Shes The One 4 Chords
You Know Me 3 Chords
Leaving Season Xtra Track - Escapology Tabs
Something Stupid Intro Tabs
Angles Ukulele
Coffee Tea And Sympathy Ukulele
Postcard Ukulele


Song lyrics



↑ Back to top | Tablatures and chords are parodies/interpretations of the original songs. You may use it for private study, scholarship, research or language learning purposes only
© 2014 AZChords.com Contact us | Privacy policy | DMCA | Add/correct tabs | Request tabs | Top 50 tabs