>
 >
Shame

Shame Guitar Tabs

Robbie Williams - Shame chords, tabs, tablatures, lyrics

Guitar lessons | Add/correct | Request | Top 50 tabs Artists:  A B C D E F G H I J K L M N O P Q R S T U V W X Y Z 0-9

Shame Guitar Tabs – Robbie Williams

CD, Sheet music, Poster

Do you like Shame? Share with your friends now
ChordsChords v2Chords v3Chords v4Chords v5TabsTabs v2Ukulele


Robbie Williams & Gary Barlow - Shame

Chords:
G	320003
Gsus4   320013
Gsus2   320033
C	032010
Am7     x02010
A7 	x02020
D7	x00212
Em7	022003
Em	022000
Asus4	x02230
Cadd9	032030
Dsus2	x00230
D	x00232
E7	020100
A	x02220


Intro:
  G       Gsus4   Gsus2                             C       Gsus2   Am7          
|-----------------------0---------------0---------------0-------0---------0-----------------------|
|-0-------1-------3---------3-------3-------3-------5-------3-------1---------1-----------1p0-----|
|-------0-------0---------------0---------------0---0---0---0---0---0---0---------------------0---|
|-----0-------0-------0-------0-------0-------0---------------------------------2-------2-------2-|
|---------0-------2---------------2-----------------3-------2-------0---------------0-------------|
|-3-----------------------------------------------------------------------------------------------|

  G       Gsus4   Gsus2                             C       Gsus2   Am7
|-----------------------0---------------0---------------0-------0---------0-----------------------|
|-0-------1-------3---------3-------3-------3-------5-------3-------1---------1-----------1-------|
|-------0-------0---------------0---------------0---0---0---0---0---0---0---------------------0---|
|-----0-------0-------0-------0-------0-------0---------------------------------2-------2-------2-|
|---------0-------2---------------2-----------------3-------2-------0---------------0-------0-----|
|-3-----------------------------------------------------------------------------------------------|


Verse 1:
  G       Gsus4   Gsus2                             C       Gsus2   Am7
|-----------------------0---------------0---------------0-------0---------0-----------------------|
|-0-------1-------3---------3-------3-------3-------5-------3-------1---------1-----------1-------|
|-------0-------0---------------0---------------0---0---0---0---0---0---0---------------------0---|
|-----0-------0-------0-------0-------0-------0---------------------------------2-------2-------2-|
|---------0-------2---------------2-----------------3-------2-------0---------------0-------------|
|-3-----------------------------------------------------------------------------------------------|
    Well there's three versions of this story mine and yours and then the truth

  G       Gsus4   Gsus2                             C       Gsus2   A7
|-----------------------0---------------0---------------0-------0---------0---------------0-------|
|-0-------1-------3---------3-------3-------3-------5-------3-------2---------2---------------2---|
|-------0-------0---------------0---------------0---0---0---0---0---0---0-------------0-----------|
|-----0-------0-------0-------0-------0-------0---------------------------------2-------2-------2-|
|---------0-------2---------------2-----------------3-------2-------0---------------0-------------|
|-3-----------------------------------------------------------------------------------------------|
    And we can put it down to circumstance, our childhood, then our youth

  D7                          Em7                             C                    
|-2-----2-------3p2---0---2---3---------------0---2-3-----------------------------------------|
|-----1-----1-------1---------------0-------------------0---0-------1-------1-------1-------1-|
|---2-------------------------------------0-----------------------0-------0-------0-------0---|
|-0-------------------------------2-------------------2---0-----2-------2-------2-------2-----|
|---------------------------------------2---------------------3-------3-------3-------3-------|
|-----------------------------0---------------------------------------------------------------|
   Out of some sentimental gain I wanted you to feel my pain but it came back return to 

  G        Gsus4    Gsus2
|-----------------------0-----|
|-0-------1-------3---------3-|
|-------0-------0-0-----------|
|-----0-------0---0---0-------|
|---------0-------2-----------|
|-3---------------------------|
  sender

  D7                          Em                              C
|-------2----2--3p2---0---2---0---------------0-------0-------------0---------------------|
|-----1-----1-------1---------------0---------0---------0-3-------1-----------------------|
|---2-------------------------------------0-----------------0---------------0-----------0-|
|-0-------------------------------2-----------2-------2---0-------------0h2---------0h2---|
|---------------------------------------2---------2-----------3-----------------3---------|
|-----------------------------0-----------------------------------------------------------|
  I read your mind and tried to call, my tears could fill the Albert Hall is this the sound 
                                                                                   of sweet  
  Dsus2
|-------0-------------0-------0-|
|-----3-----3-------3-----3---3-|
|---2-------------2-----------2-|
|-0-------------0-------------0-|
|-------------------------------|
|-------------------------------|
  Surrender                                            


Chorus:
                    What a shame we

  Gsus2       Asus4      Cadd9       D          Gsus2       Asus4       Cadd9       D
|--------------------------------------------------------------------------------------------2-|
|-------3-----------3----------3-----------3----------3-----------3-----------3-----------3----|
|----0-----0-----2-----0----------0-----2-----2----0-----0-----2-----0-----------0-----2-------|
|---------------------------2--------0-------------------------------------2--------0----------|
|-------------0----------3----------------------------------0-----------3----------------------|
|-3---------------------------------------------3----------------------------------------------|
  never listened I told you through the televison. And all that went 

  Gsus2       Asus4      Cadd9       D          Em                      A7                      D
|--------------------------------------------------------0-----------------------0--------------2-|
|-------3-----------3----------3-----------3----------0--------0--------------2--------2--------3-|
|----0-----0-----2-----0----------0-----2-----2----0-----------------0-----0-----------------0--2-|
|---------------------------2--------0----------------------2-----------------------2-----------0-|
|-------------0----------3----------------------------------------2-----0-----------------0-----0-|
|-3---------------------------------------------0-------------------------------------------------|
  away was the price we paid. People spend a lifetime this way, 
                                                        Oh what a shame


Verse2:
  G       Gsus4   Gsus2                         C       Gsus2   Am7          
|-----------------------0-------------0-------------0-------0---------0-----------------------|
|-0-------1-------3-------3-------3-------3-----5-------3-------1---------1-----------1p0-----|
|-------0-------0-------------0---------------0-0---0---0---0---0---0---------------------0---|
|-----0-------0-------0-----0-------0-------0-------------------------------2-------2-------2-|
|---------0-------2-------------2---------------3-------2-------0---------------0-------------|
|-3-------------------------------------------------------------------------------------------|
     So I got busy throwing everybody underneath the bus

  G       Gsus4   Gsus2                         C       Gsus2   A7
|-----------------------0-------------0-------------0-------0---------0---------------0-------|
|-0-------1-------3-------3-------3-------3-----5-------3-------2---------2---------------2---|
|-------0-------0-------------0---------------0-0---0---0---0---0---0-------------0-----------|
|-----0-------0-------0-----0-------0-------0-------------------------------2-------2-------2-|
|---------0-------2-------------2---------------3-------2-------0---------------0-------------|
|-3-------------------------------------------------------------------------------------------|
    And with your poster 30 foot high at the back of Toys-R-Us

  D7                          Em                              C                    
|-2-----2-------3p2---0---2---0---------------0---2---3---------------------------------------|
|-----1-----1-------1---------------0---------------------3---------1-------1-------1-------1-|
|---2-------------------------------------0-----------------------0-------0-------0-------0---|
|-0-------------------------------2-----------------------------2-------2-------2-------2-----|
|---------------------------------------2---------------------3-------3-------3-------3-------|
|-----------------------------0---------------------------------------------------------------|
  I wrote a letter in my mind, but the words were so unkind, about a man I can't re-

  G       Gsus4   Gsus2
|-----------------------0-----|
|-0-------1-------3---------3-|
|-------2-------2-------------|
|-----0-------0-------0-------|
|---------0-------2-----------|
|-3---------------------------|
  member

  D7                          Em                              C 
|-------0---2---3p2---0---2---0---------------0-------0---------------------------0---------|
|-----1-------------1---------------0-------------0-------3---------------------------------|
|---2-------------------------------------0---------------------------0-------------------0-|
|-0-------------------------------2-------------------------------0h2-----2-----------0h2---|
|---------------------------------------2---------------------3---------------3-------------|
|-----------------------------0-------------------------------------------------------------|
  I don't recall the reasons why, I must have meant them at the time, is this the sound
                                                                                    of sweet 

  Dsus2
|-------0-------------0-------0-|
|-----3-----3-------3-----3---3-|
|---2-------------2-----------2-|
|-0-------------0-------------0-|
|-------------------------------|
|-------------------------------|
  Surrender


Chorus:
                                            What a shame we

  Gsus2       Asus4      Cadd9       D          Gsus2       Asus4      Cadd9       D
|--------------------------------------------------------------------------------------------2-|
|-------3-----------3----------3-----------3----------3-----------3-----------3-----------3----|
|----0-----0-----2-----0----------0-----2-----2----0-----0-----2-----0-----------0-----2-------|
|---------------------------2--------0-------------------------------------2--------0----------|
|-------------0----------3----------------------------------0-----------3----------------------|
|-3---------------------------------------------3----------------------------------------------|
  never listened I told you through the televison. And all that went  

|---------------------------------------0---------------0------------|
|-----3-------3-------3-------3-------0-----0---------2-----2--------|
|---0---0---2---0-------0---2---2---0-----------0---0-----------0----|
|-------------------2-----0---------------2---------------2----------|
|---------0-------3---------------------------2---0-----------0------|
|-3-------------------------------0----------------------------------|
  Gsus2       Asus4      Cadd9       D          Em                      A7                   
|--------------------------------------------------------0-----------------------0-------------|
|-------3-----------3----------3-----------3----------0--------0--------------2--------2-------|
|----0-----0-----2-----0----------0-----2-----2----0-----------------0-----0-----------------0-|
|---------------------------2--------0----------------------2-----------------------2----------|
|-------------0----------3----------------------------------------2-----0-----------------0----|
|-3---------------------------------------------0----------------------------------------------|
  away was the price we paid. People spend a lifetime this way, 
                                                        Oh what a shame

  Em              A7              D 
|-------0---------------0---------------2---2----------|
|-----0-----0---------2-----2---------3---------3------|
|---0-----------0---0-----------0---2---------2--------|
|---------2---------------2-------0-------0-------0----|
|-------------2---0-----------0------------------------|
|-0----------------------------------------------------|
  And that's how they stay,     oh what a shame


Bridge:
 G               E7              A                               Am7             D7              G 
|3---------------0---------------0---------------0---------------0---------------2---------------3|
|0---------------0---------------2---------------2---------------1---------------1---------------0|
|0---------------1---------------2---------------2---------------0---------------2---------------0|
|0---------------0---------------2---------------2---------------2---------------0---------------0|
|2---------------2---------------0---------------0---------------0---------------0---------------2|
|3---------------0-------------------------------------------------------------------------------3|
  Words           come            easy                            When            they're      true

 G               E7              A                               Am7             D7              G 
|3---------------0---------------0---------------0---------------0---------------2---------------3|
|0---------------0---------------2---------------2---------------1---------------1---------------0|
|0---------------1---------------2---------------2---------------0---------------2---------------0|
|0---------------0---------------2---------------2---------------2---------------0---------------0|
|2---------------2---------------0---------------0---------------0---------------0---------------2|
|3---------------0-------------------------------------------------------------------------------3|
  Words           come            easy                            When            they're      true

  G               Am7             C               D
|-3---------------0---------------0-0-------------2-------2-|
|-0---------------1---------------1-1-------------3-------3-|
|-0---------------0---------------0-0-------------2-------2-|
|-0---------------2---------------2-2-------------0-------0-|
|-2---------------0---------------3-3-------------0-------2-|
|-3-------------------------------0-0-----------------------|
  So I got busy throwing everybody underneath the bus
   
  G               Am7             C               D
|-3-------3-------0-------0-------0-0-----0-------2-------2---3----|
|-0-------0-------1-------1-------1-1-----1-------3---3------------|
|-0-------0-------0-------0-------0-0-----0-------2----------------|
|-0-------0-------2-------2-------2-2-----2-------0----------------|
|-2-------2-------0-------0-------3-3-----3-------0----------------|
|-3-------3-----------------------0-0-----0------------------------|
  bus. And with your poster 30 foot high at the back of Toys-R-Us 
 
  G               Am7             C               D               Dsus2
|---------3---------------0---------------0---------------2---------------0-------------------0---2|
|-------------3---------------1---------------1---------------3---------------3-----------3--------|
|---------------------0---------------0---------------2---------------2---------------2------------|
|-----0-------------------------------------------0---------------0---------------0----------------|
|-----------------0---------------3----------------------------------------------------------------|
|-3------------------------------------------------------------------------------------------------|
       Now we can put it down to circumstance, our childhood then our youth


Chorus:
                   What a shame we 

  Gsus2       Asus4      Cadd9       D          Gsus2       Asus4      Cadd9       D
|--------------------------------------------------------------------------------------------2-|
|-------3-----------3----------3-----------3----------3-----------3-----------3-----------3----|
|----0-----0-----2-----0----------0-----2-----2----0-----0-----2-----0-----------0-----2-------|
|---------------------------2--------0-------------------------------------2--------0----------|
|-------------0----------3----------------------------------0-----------3----------------------|
|-3---------------------------------------------3----------------------------------------------|
  never listened I told you through the televison. And all that went  

  Gsus2       Asus4      Cadd9       D          Em                      A7                   
|--------------------------------------------------------0-----------------------0-------------|
|-------3-----------3----------3-----------3----------0--------0--------------2--------2-------|
|----0-----0-----2-----0----------0-----2-----2----0-----------------0-----0-----------------0-|
|---------------------------2--------0----------------------2-----------------------2----------|
|-------------0----------3----------------------------------------2-----0-----------------0----|
|-3---------------------------------------------0----------------------------------------------|
  away was the price we paid. People spend a lifetime this way, 
                                                        

|----------0------------------------0-----------------------0-----------------------0-------------|
|-------0--------0---------------2--------2--------------0--------0--------------2--------2-------|
|----0------------------0-----0-----------------0-----0-----------------0-----0-----------------0-|
|-------------2------------------------2-----------------------2-----------------------2----------|
|-------------------2------0-----------------0-----------------------2-----0-----------------0----|
|-0------------------------------------------------0----------------------------------------------|
  And that's how they stay,  people spend a lifetime this way                       oh what a shame

|-------2---2--------|
|-----3---------3----|
|---2---------2------|
|-0-------0----------|
|--------------------|
|--------------------|
               what a shame
 

Outro:
  G       Gsus4   Gsus2                             C       Gsus2   A7
|-----------------------0---------------0---------------0-------0---------0---------------0--------|
|-0-------1-------3---------3-------3-------3-------5-------3-------2---------2---------------2----|
|-------0-------0---------------0---------------0---0---0---0---0---0---0--------------------------|
|-----0-------0-------0-------0-------0-------0---------------------------------2-------2-------2-2|
|---------0-------2---------------2-----------------3-------2-------0---------------0--------------|
|-3------------------------------------------------------------------------------------------------|
                                                    Oh oh oh
  Am7                           G
|-------0-----------------------3----|
|-1---------1-----------1p0-----0----|
|---------------------------0---0----|
|-----2-------2-------2-------2-0----|
|-----------------0-------------2----|
|-------------------------------3----|
  Such a shame, what a shame





Comments


Popular Robbie Williams tabs & chords
Advertising Space Bass Tabs
Better Man 3 Bass Tabs
Hot Fudge Bass Tabs
Life Thru A Lens Bass Tabs
Eternity 1 Chords
Mr Bojangles Chords
Random Acts Of Kindness Chords
Something Stupid 1 Chords
Shes The One Intro Tabs
Strong Tabs


Song lyrics



↑ Back to top | Tablatures and chords are parodies/interpretations of the original songs. You may use it for private study, scholarship, research or language learning purposes only
© 2014 AZChords.com Contact us | Privacy policy | DMCA | Add/correct tabs | Request tabs | Top 50 tabs