» » »

Robbie Williams, Better Man Tabs (ver.2)

Artists:  A B C D E F G H I J K L M N O P Q R S T U V W X Y Z # 

Better Man Tabs (ver.2)

Robbie Williams Tabs
 Rating:
4/5 (4 votes)
Better Man lessons Tabs too difficult? Try these video lessons and learn fast
1
                ROBBIE WILLIAMS 

"Better Man"

intro                                   
e---3----3----3--3----3---3--3-----3---------------------
b----0-----0---0--0----0---0---0-------------------------
g------0------------0---0--------0-----------------------
d--------------------------------------------------------
a--------------------------------------------------------
E--------------------------------------------------------
                  

 

                 G                 
Send someone to love me
           Em       
I need to rest in arms
          C 
Keep me safe from harm
            D      
In pouring rain

                 G
Give me endless summer
         Em         
Lord I fear the cold
            C      
Feel I'm getting old
           D       
Before my time

Em                    D
As my soul heals the shame
        G                 Em
I will grow through this pain
           C          D
Lord I'm doing all I can
                  G
To be a better man

                 G 
Go easy on my conscience
            Em             
'Cause it's not my fault
             C     
I know I've been taught
              D    
To take the blame

                 G
Rest assured my angels
       Em      
Will catch my tears
         C
Walk me out of here
        D         
I'm in pain

Em                     D                  
As my soul heals the shame
         G                Em
I will grow through this pain
           C          D       
Lord I'm doing all I can
                G 
To be a better man

 A                                      F#m
Once you've found that lover You're homeward bound
         D         
Love is all around
         G         
Love is all around

   A                       F#m
I know some have fallen On stony ground
          D        
But Love is all around

                 G                
Send someone to love me
           Em      
I need to rest in arms
          C        
Keep me safe from harm
             D     
In pouring rain

                  G
Give me endless summer
        Em         
Lord I fear the cold
           C       
Feel I'm getting old
           D      
Before my time

Em                     D
As my soul heals the shame
         G                Em
I will grow through this pain
          C           D
Lord I'm doin' all I can
                  G
To be a better man...

end
e---3----3----3--3----3---3--3-----3---------------------
b----0-----0---0--0----0---0---0-------------------------
g------0------------0---0--------0-----------------------   G
d--------------------------------------------------------
a--------------------------------------------------------
E--------------------------------------------------------
                  

 

 
            
Submit corrections

comments powered by Disqus
↑ Back to top | Robbie Williams Tabs for Better Man. Lyrics for acoustic guitar and electric guitar. 1 Tablatures and chords are parodies/interpretations of the original songs. You may use it for private study, scholarship, research or language learning purposes only