» » »

Last Chance Blueprint Tabs (ver.1)

Artists:  A B C D E F G H I J K L M N O P Q R S T U V W X Y Z # 

Last Chance Blueprint Tabs (ver.1)

Rise Against
Rating:
0/5 (0 votes)

Hard to play? Try these video lessons and learn fast.
                RISE AGAINST-Last Chance Blueprint
Album-Revolutions Per Minute

*=Let ring
h=Hammer on
p=Pull off
P=Palm Mute

INTRO:
1|-----------------------------------------------|
2|-----------------------------------------------|
3|--66-6--9-8----66-6--66-6--9-8-----------------|
4|--66-6--9-8-9--66-6--66-6--9-8-9---------------|
5|--44-4--7-6-9--44-4--44-4--7-6-9---------------|
6|------------7------------------7---------------| x1
    PP *      *  PP *  PP *      *
VERSE:
1|-----------------------------------------------|
2|-----------------------------------------------|
3|--6-------4------------------------------------|
4|--6---7---4------------------------------------|
5|--4---7---2------------------------------------|
6|------5----------------------------------------| x4
  (x16)(x8)(x8)

CHORUS:
1|----------------------   |-------------------------|
2|----------------------   |-------------------------|
3|---------444----6-----   |--------4-----6----------|
4|--777-44-444-66-6-----   |--7--4--4--6--6----------|
5|--777-44-222-66-4-----   |--7--4--2--6--4----------|
6|--555-22-----44------- x3|--5--2-----4-------------|
                  (x16)                   *

BRIDGE:
1|-------------------------------------------------|
2|---------------------------5h7-5h7p5p0-----------|
3|--6--6--6-------4------4---------------4h6-------|
4|--6--6--6---4h6--6-4h6--6-----------------6-4h6--|
5|--4--4--4----------------------------------------|
6|-------------------------------------------------| x2
    *  *  *     *  *   *  *    *       *    *   *

ORDER:
Intro
Verse
Chorus
Verse
Chorus
Bridge
Chorus

this isn't a very hard song, you just have to get the rythem right and it sounds 
            
Hard to play? Try these video lessons and learn fast. | Correct




comments powered by Disqus
↑ Back to top | Tablatures and chords are parodies/interpretations of the original songs. You may use it for private study, scholarship, research or language learning purposes only