>
 >
Injection 2

Injection 2 Bass Tabs

Rise Against - Injection 2 chords, tabs, tablatures, lyrics

Guitar lessons | Add/correct | Request | Top 50 tabs Artists:  A B C D E F G H I J K L M N O P Q R S T U V W X Y Z 0-9

Injection 2 Bass Tabs – Rise Against

CD, Sheet music, Poster

Do you like Injection 2? Share with your friends now
Bass TabsBass Tabs v2Bass Tabs v3ChordsTabsTabs v2Tabs v3Tabs v4Ukulele
Rise Against
injection

This is a fun and easy song. Have fun.
I just started bass so it might be wrong.

tunning: half step down (Eb, G#, C#, F#, Bb, Eb)

Intro/chorus
|---------------------------------------------------------------------|
|---------------------------------------------------------------------|
|------------------8888888888888888-----------------------------------|
|-55555555555555555----------------8888888888888888-33333333333333333-|


|---------------------------------------------------------------------|
|---------------------------------------------------------------------|
|------------------8888888888888888---------------------222233333-----|
|-55555555555555555----------------8888888888888888-3333---------3333-|



Verse
|---------------------------------------------------------------------|
|---------------------------------------------------------------------|
|-0000000000000000-----------------0000000000000000----------33333333-|
|-----------------11111111-3333333------------------11111111----------|

|---------------------------------------------------------------------|
|---------------------------------------------------------------------|
|-0000000000000000-----------------0000000000000000----------33333333-|
|-----------------11111111-3333333------------------11111111----------|



Pre-Chorus 1
|---------------------------------------------|
|---------------------------------------------|
|---------------------------------------------|
|-0000000000000000000000000000000000000000000-|


play Chorus


in between thing
|----------------|
|----------------|
|----------------|
|-0-------0------|
  s       s


play verse 


Pre-Chorus 2
|-------------------------|
|-------------------------|
|-7-7--------8------10~~~-|
|-------------------------|


Play chorus


Bridge
|----------------------------------------------------|
|----------------------------------------------------|
|-000-0000---------------2/3-------------------------|
|------------111-1111--------333-3333----111-1111----|

|----------------------------------------------------|
|----------------------------------------------------|
|-000-0000---------------2/3-------------------------|
|------------111-1111--------333-3333----111-1111----|

|--------------------------------------------------------------------|
|--------------------------------------------------------------------|
|-0000000000000000---------------------------------------------------|
|-----------------1111111111111111-3333333333333333-1111111111111111-|

|--------------------------------------------------------------------|
|--------------------------------------------------------------------|
|-0000000000000000---------------------------------------------------|
|-----------------1111111111111111-3333333333333333-1111111111111111-|

|------------------------|
|------------------------|
|-777-777-7-8888-9-------|
|------------------------|


Play chorus


final chorus
|----------------------------------------------|
|----------------------------------------------|
|-0-0000000-8-8888888--------------------------|
|---------------------8-8888888-3-3333333-4~~~-|


thats it. Have fun. Remember, I only play guitar, so its not perfect.

KEY:
s: slap
~: let ring
/:slide up





Comments


Popular Rise Against tabs & chords
1000 Good Intentions Bass Tabs
Entertainment 1 Chords
Roadside 1 Chords
This Is Letting Go Chords
Broken Mirrors Tabs
Give It All Tabs
Help Is On The Way Tabs
Injection 2 Tabs
Paper Wings Intro Tabs
Prayer Of The Refugee 6 Tabs


Song lyrics



↑ Back to top | Tablatures and chords are parodies/interpretations of the original songs. You may use it for private study, scholarship, research or language learning purposes only
© 2014 AZChords.com Contact us | Privacy policy | DMCA | Add/correct tabs | Request tabs | Top 50 tabs