» » »

Gethsemane Tabs (ver.1)

Artists:  A B C D E F G H I J K L M N O P Q R S T U V W X Y Z # 

Gethsemane Tabs (ver.1)

Rise Against
Rating:
0/5 (0 votes)

Hard to play? Try these video lessons and learn fast.
                ----------------------------------------------------------|------------------- 
----------------------------------------------------------|------------------- 
----------------------------------------------------------|------------------- 
----------------------------------------------------------|------------------- 
---------------------9-9-9-8-8-8---------------11-9-8-9---|------------------- 
-9h11-11-11-11-11-11-------------9-9-9-9-9-9-9------------|------------------- 
Intro/Verse (use up&down picking) 

---------------------9-9-9-8-8-8-11-11-11-11-11-11----------------|----------- 
-9h11-11-11-11-11-11-------------------------------9-9-9-9-9-9----|----------- 
dunno if the number of notes is correct, you gotta figure that out! 

-----------------------|------------------------------------------------------ 
-----------------------|------------------------------------------------------ 
------6666-88888888----|---6-6--8--------------------------------------------- 
-4444-6666-88888888-3x-|-4-6-6--8--------------------------------------------- 
-4444-4444-66666666----|-4-4-4--6--------------------------------------------- 
-2222------------------|-2---------------------------------------------------- 
Chorus (Believe in me and I will...) 

-88-6-88-6-88-6-88-11-12------------------------------------------------------ 
-88-6-88-6-88-6-88-11-12------------------------------------------------------ 
-66-4-66-4-66-4-66--9-10------------------------------------------------------ 
Bridge1(Scream-Part) (Someone stop my mind from screaming...) 4x 

---------------------|-------------------------------------------------------- 
---------------------|-------------------------------------------------------- 
-8-8-8-8-8-8--6666---|-8------------------------------------------------------ 
-8-8-8-8-8-8--6666---|-8-let ring--------------------------------------------- 
-6-6-6-6-6-6--4444---|-6------------------------------------------------------ 
---------------------|-------------------------------------------------------- 
Outro 4x (Now everthing here is a lie)
            
Hard to play? Try these video lessons and learn fast. | Correct




comments powered by Disqus
↑ Back to top | Tablatures and chords are parodies/interpretations of the original songs. You may use it for private study, scholarship, research or language learning purposes only