>
 >
Endgame 1

Endgame 1 Guitar Tabs

Rise Against - Endgame 1 chords, tabs, tablatures, lyrics

Guitar lessons | Add/correct | Request | Top 50 tabs Artists:  A B C D E F G H I J K L M N O P Q R S T U V W X Y Z 0-9

Endgame 1 Guitar Tabs – Rise Against

CD, Sheet music, Poster

Do you like Endgame 1? Share with your friends now
Bass TabsBass Tabs v2Bass Tabs v3TabsTabs v2
Tuning: Drop Eb (Down Half Step)
______________________________________________________________________________
0:04
Eb -------------------------------|
Bb -------------------------------|
Gb -------------------------------|
Db ---2-------5-55-555-7-77-777---|
Ab ---2-pause-3-33-333-5-55-555---|
Eb ---0---------------------------|

Eb ------------------------------------------------------------|
Bb ------------------------------------------------------------|
Gb ---161616-999-171717-141414-161616-9999---------------------|
Db ---X-X-X--XXX-X-X-X--X-X-X--X-X-X--XXXX---------------------|
Ab ---141414-777-151515-121212-141414-7777---------------------|
Eb ----------------------------------------12-14-15-14-12-12---|

Eb --------------------------------------------------------------------|
Bb --------------------------------------------------------------------|
Gb ---161616-999-171717-141414-16--1616-14-1414-11-11111111-12-11-9~---|
Db ---X-X-X--XXX-X-X-X--X-X-X--X---X-X--X--X-X--X--X-X-X-X--X--X--X~---|
Ab ---141414-777-151515-121212-14--1414-12-1212-9--9-9-9-9--10-9--7~---|
Eb --------------------------------------------------------------------|

0:18
Guitar 1
Eb ---------------------------------------------------------------------------------------------|
Bb ---------------------------------------------------------------------------------------------|
Gb ---------------------------------------------------------------------------------------------|
Db -------------5--------7-----------5--------7-----------5--------7-5---------7------2-4-5-----|
Ab ---2---------3-333333-5-2---------3-333333-5-2---------3-333333-5-3-3333333-5-5555-------2~--|
Eb ---0-0000000------------0-0000000------------0-0000000-----------------------------------0~--|
         *******   ******     *******   ******     *******   ******     *******   ****
Guitar 2
Eb ---REST---REST---REST---REST---REST---REST----12~--------------------------------------------|
Bb ---REST---REST---REST---REST---REST---REST----12~--------------------------------------------|
Gb ---REST---REST---REST---REST---REST---REST---------------------------------------------------|
Db ---REST---REST---REST---REST---REST---REST------------------------5-5555555-4-4444444--------|
Ab ---REST---REST---REST---REST---REST---REST------------------------3-3333333-5-5555555----2~--|
Eb ---REST---REST---REST---REST---REST---REST-----------------------------------------------0~--|

0:27
Eb ------------------------------------------------------------------------|
Bb ------------------------------------------------------------------------|
Gb ------------------------------------------------------------------------|
Db ---5-5555------------5-5555------------5-5555--------5--(X8)--4--(X8)---|
Ab ---3-3333-2-3-5-2~---3-3333-2-3-5-2~---3-3333-2-3-5--3--------5---------|
Eb ----------------0~----------------0~------------------------------------|

Eb ------0---------------------0-----------------|
Bb --------0--------0-1-3--------0---------------|
Gb ---2~-----0---0~---------2~-----0-------------|
Db ---2~---------2~---------2~-------5555-4444---|
Ab ---0~---------3~---------0~-------3333-5555---|
Eb ----------------------------------------------|
                                      **** ****
0:46
Eb -------------------------------------------------|
Bb -------------------------------------------------|
Gb -------------------------------------------------|
Db ------------------------------4--(X4)--4--(X4)---|  X2
Ab ---2--(X8)--5--(X8)--7--(X8)--2--------5---------|
Eb ---0--------3--------5---------------------------|

1:04
Eb --------0~-------------------------------------------|
Bb -----------0~-----------3-5--5-5---5--5-5---5--5-5---|
Gb --------------4-2-0-4-5---4--4-4---4--4-4---4--4-4---|
Db --------------------------2--2-2---2--2-2---2--2-2---|
Ab ---2~------------------------------------------------|
Eb ---0~------------------------------------------------|

1:17
Eb --------------------------------------------------------------------------------------------|
Bb --------------------------------------------------------------------------------------------|
Gb --------------------------------------------------------------------------------------------|
Db ---5-555-----5-----4-----4----------5--(X8)-----------5--(X8)-----------5--(X16)--4--(X8)---|
Ab ---3-333-333-3-355-5-555-5-2--(X8)--3--------2--(X8)--3--------2--(X8)--3---------5---------|
Eb ---------------------------0-----------------0-----------------0----------------------------|
             ***   ***   ***
Eb ------7-------------------|
Bb --------8-----------------|
Gb --------------------------|
Db ----------2-5--5-5-5--5---|
Ab ---2~-----0-3--3-3-3--5---|
Eb ---0~---------------------|
                   * * *
1:33
Eb -------------------------------------------------|
Bb -------------------------------------------------|
Gb -------------------------------------------------|
Db ------------------------------4--(X4)--4--(X4)---|  X2
Ab ---2--(X8)--5--(X8)--7--(X8)--2--------5---------|
Eb ---0--------3--------5---------------------------|

1:50
Eb ----------------------------------------------------------------------------------|
Bb ----------------------------------------------------------------------------------|
Gb ----------------------------------------------------------------------------------|
Db --------5-5555555----------55555555----------5-5555555----------------------------|
Ab ---2~---3-3333333-77777777-77777777-55555555-3-3333333-77777777-222222222222-2222-|
Eb ---0~-------------55555555----------33333333-----------55555555-000000000000-0000-|
              ******* ******** ******** ********   ******* ******** ************
2:12
Eb ---------------------0-------------------------------------------------------------|
Bb ---------3-----------0---------0---------7---------3-------------------------------|
Gb -------0---0-------2-----------0---------7-------0---0-------0-2-------------------|
Db -----2-------2---2-----------2---------7-------2-------2---4-------7-7--9--(X16)---|
Ab ---3-----------0-----------2-------5-5-------3-----------5---------5-5--7----------|
Eb -------------------------0---------------------------------------------------------|

Eb ---------------------0---------------------------------------------|
Bb ---------3-----------0---------0-----------------------------------|
Gb -------0---0-------2-----------0---------5-4-----------------------|
Db -----2-------2---2-----------2---------5-----5---5--(X8)--5--(X8)--|
Ab ---3-----------0-----------2---------5---------5-3--------5--------|
Eb -------------------------0---------3-------------------------------|

2:40
Eb -------2-0-2-3---0-0-0-2-0-2-3---0-0-0-2-0-2-3---0------|
Bb ---5-5-5-5-5-5-5-0-0-0-5-5-5-5-5-0-0-0-5-5-5-5-5-0-5b---|
Gb ---------------------------------------------------4b---|
Db --------------------------------------------------------|
Ab --------------------------------------------------------|
Eb --------------------------------------------------------|

2:48
Eb -------------------------------------------------|
Bb -------------------------------------------------|
Gb -------------------------------------------------|
Db ------------------------------4--(X4)--4--(X4)---|  X4
Ab ---2--(X8)--5--(X8)--7--(X8)--2--------5---------|
Eb ---0--------3--------5---------------------------|

Legend:
X      Dead Note
~      Let Note Ring
ph     Pinch Harmonic
*      Palm Muted
b      Bend Note

END





Comments


Popular Rise Against tabs & chords
Anywhere But Here Chords
Worth Dying For Chords
But Tonight We Dance 4 Tabs
Dirt And Roses 2 Tabs
Hero Of War Tabs
Prayer Of The Refugee 5 Tabs
The Strength To Go On Tabs
Weight Of Time Tabs
Wholl Stop The Rain Tabs
Kotov Syndrome Ukulele


Song lyrics



↑ Back to top | Tablatures and chords are parodies/interpretations of the original songs. You may use it for private study, scholarship, research or language learning purposes only
© 2014 AZChords.com Contact us | Privacy policy | DMCA | Add/correct tabs | Request tabs | Top 50 tabs