>
 >
Dancing For Rain

Dancing For Rain Guitar Tabs

Rise Against - Dancing For Rain chords, tabs, tablatures, lyrics

Guitar lessons | Add/correct | Request | Top 50 tabs Artists:  A B C D E F G H I J K L M N O P Q R S T U V W X Y Z 0-9

Dancing For Rain Guitar Tabs – Rise Against

CD, Sheet music, Poster

Do you like Dancing For Rain? Share with your friends now
Bass TabsBass Tabs v2Bass Tabs v3ChordsDrum TabsTabsTabs v2Tabs v3Tabs v4Tabs v5Ukulele
Rise Aganist
                               Dancing For rain (Track 10; 4:01)
                               Siren Song Of The Counter Culture
                         
This song is normally dropped but it is tabbed out with a capo on fret 1       


Sup guys.. this may seem like alot for such a \"simple song\" but
if you listen carefullym there is alot of change in the lead
guitar\'s riffs therfore i have to tab out all of the chorus,
verse etc. if you have a trained ear, you\'ll notice it. If
you dont, use another tab, because this one will confuse the
hell out of you.  

Just because its emo/punk doesnt mean its easy!



   Rythem Guitar -->



   Intro -->                                                           
E||------|------|------|------|------|------|------|------|------|
B||------|------|------|------|------|------|------|------|------|
G||------|------|------|------|------|------|------|------|------|
D||------|------|------|------|------|------|------|------|------|
A||------|------|------|------|------|------|------|------|------|
D||------|------|------|------|------|------|------|------|------|


                                                          
----------------------------|----------------------------|
----------------------------|----------------------------|
---------------6--6-6--6----|--4--4-4--4----6--6-6--6-6--|
--1--1-3--3-4--6--6-6--6----|--4--4-4--4----6--6-6--6-6--|
--1--1-3--3-4--4--4-4--4-1--|--2--2-2--2-1--4--4-4--4-4--|
--1--1-3--3-4---------------|----------------------------|


                                                          
----------------------------|----------------------------|
----------------------------|----------------------------|
---------------6--6-6--6----|--4--4-4--4----6--6-6--6-6--|
--1--1-3--3-4--6--6-6--6----|--4--4-4--4----6--6-6--6-6--|
--1--1-3--3-4--4--4-4--4-1--|--2--2-2--2-1--4--4-4--4-4--|
--1--1-3--3-4---------------|----------------------------|


                                                          
----------------------------|----------------------------|
----------------------------|----------------------------|
---------------6--6-6--6----|--4--4-4--4----6--6-6--6-6--|
--1--1-3--3-4--6--6-6--6----|--4--4-4--4----6--6-6--6-6--|
--1--1-3--3-4--4--4-4--4-1--|--2--2-2--2-1--4--4-4--4-4--|
--1--1-3--3-4---------------|----------------------------|


                                                          Verse -->
                   
----------------------------|----------------------------|-------------------|
----------------------------|----------------------------|-------------------|
---------------6--6-6--6----|--4--4-4--4----6--6-6--6-6--|-------------------|
--1--1-3--3-4--6--6-6--6----|--4--4-4--4----6--6-6--6-6--|--1----------------|
--1--1-3--3-4--4--4-4--4-1--|--2--2-2--2-1--4--4-4--4-4--|--1----------------|
--1--1-3--3-4---------------|----------------------------|--1----------------|


                                                      
------------------|------|------|------|------|------|
------------------|------|------|------|------|------|
------------------|------|------|------|------|------|
------------------|------|------|------|------|------|
------------------|------|------|------|------|------|
------------------|------|------|------|------|------|


                                                 Chorus -->
                           
----------------------------|-------------------|--------------------------|
----------------------------|-------------------|--------------------------|
--6--6-6--6-6--6--6-6--6-6--|--6----------------|--------------------------|
----------------------------|-------------------|--1--1--1--1--1--1--1--1--|
--4--4-4--4-4--4--4-4--4-4--|--4----------------|--1--1--1--1--1--1--1--1--|
----------------------------|-------------------|--1--1--1--1--1--1--1--1--|


                                                      
--------------------------|--------------------------|
--------------------------|--------------------------|
--------------------------|--4--4--4--4--4--4--4--4--|
--4--4--4--4--4--4--4--4--|--4--4--4--4--4--4--4--4--|
--4--4--4--4--4--4--4--4--|--2--2--2--2--2--2--2--2--|
--4--4--4--4--4--4--4--4--|--------------------------|


                                                      
--------------------------|--------------------------|
--------------------------|--------------------------|
--6--6--6--6--6--6--6--6--|--------------------------|
--6--6--6--6--6--6--6--6--|--1--1--1--1--1--1--1--1--|
--4--4--4--4--4--4--4--4--|--1--1--1--1--1--1--1--1--|
--------------------------|--1--1--1--1--1--1--1--1--|


                                                                               
--------------------------|--------------------------|------------------------|
--------------------------|--------------------------|------------------------|
--------------------------|--4--4--4--4--4--4--4--4--|--4-------6----6--6--6--|
--4--4--4--4--4--4--4--4--|--4--4--4--4--4--4--4--4--|--4--4----6----6--6--6--|
--4--4--4--4--4--4--4--4--|--2--2--2--2--2--2--2--2--|--2--4----4----4--4--4--|
--4--4--4--4--4--4--4--4--|--------------------------|-----4------------------|


                                                      
--------------------------|--------------------------|
--------------------------|--------------------------|
--------------------------|--------------------------|
--1--1--1--1--1--1--1--1--|--4--4--4--4--4--4--4--4--|
--1--1--1--1--1--1--1--1--|--4--4--4--4--4--4--4--4--|
--1--1--1--1--1--1--1--1--|--4--4--4--4--4--4--4--4--|


                                                      
--------------------------|--------------------------|
--------------------------|--------------------------|
--4--4--4--4--4--4--4--4--|--6--6--6--6--6--6--6--6--|
--4--4--4--4--4--4--4--4--|--6--6--6--6--6--6--6--6--|
--2--2--2--2--2--2--2--2--|--4--4--4--4--4--4--4--4--|
--------------------------|--------------------------|


                                                      
--------------------------|--------------------------|
--------------------------|--------------------------|
--------------------------|--------------------------|
--1--1--1--1--1--1--1--1--|--4--4--4--4--4--4--4--4--|
--1--1--1--1--1--1--1--1--|--4--4--4--4--4--4--4--4--|
--1--1--1--1--1--1--1--1--|--4--4--4--4--4--4--4--4--|


                                                    
--------------------------|------------------------|
--------------------------|------------------------|
--4--4--4--4--4--4--4--4--|--4-------6----6--6--6--|
--4--4--4--4--4--4--4--4--|--4--4----6----6--6--6--|
--2--2--2--2--2--2--2--2--|--2--4----4----4--4--4--|
--------------------------|-----4------------------|


                                                          
----------------------------|----------------------------|
----------------------------|----------------------------|
---------------6--6-6--6----|--4--4-4--4----6--6-6--6-6--|
--1--1-3--3-4--6--6-6--6----|--4--4-4--4----6--6-6--6-6--|
--1--1-3--3-4--4--4-4--4-1--|--2--2-2--2-1--4--4-4--4-4--|
--1--1-3--3-4---------------|----------------------------|


                                                          
----------------------------|----------------------------|
----------------------------|----------------------------|
---------------6--6-6--6----|--4--4-4--4----6--6-6--6-6--|
--1--1-3--3-4--6--6-6--6----|--4--4-4--4----6--6-6--6-6--|
--1--1-3--3-4--4--4-4--4-1--|--2--2-2--2-1--4--4-4--4-4--|
--1--1-3--3-4---------------|----------------------------|


                                                          
----------------------------|----------------------------|
----------------------------|----------------------------|
---------------6--6-6--6----|--4--4-4--4----6--6-6--6-6--|
--1--1-3--3-4--6--6-6--6----|--4--4-4--4----6--6-6--6-6--|
--1--1-3--3-4--4--4-4--4-1--|--2--2-2--2-1--4--4-4--4-4--|
--1--1-3--3-4---------------|----------------------------|


                                                          Verse -->
                    
----------------------------|----------------------------|-------------------|
----------------------------|----------------------------|-------------------|
---------------6--6-6--6----|--4--4-4--4----6--6-6--6-6--|-------------------|
--1--1-3--3-4--6--6-6--6----|--4--4-4--4----6--6-6--6-6--|--1----------------|
--1--1-3--3-4--4--4-4--4-1--|--2--2-2--2-1--4--4-4--4-4--|--1----------------|
--1--1-3--3-4---------------|----------------------------|--1----------------|


                                                      
------------------|------|------|------|------|------|
------------------|------|------|------|------|------|
------------------|------|------|------|------|------|
------------------|------|------|------|------|------|
------------------|------|------|------|------|------|
------------------|------|------|------|------|------|


                                                 Chorus -->
                           
----------------------------|-------------------|--------------------------|
----------------------------|-------------------|--------------------------|
--6--6-6--6-6--6--6-6--6-6--|--6----------------|--------------------------|
----------------------------|-------------------|--1--1--1--1--1--1--1--1--|
--4--4-4--4-4--4--4-4--4-4--|--4----------------|--1--1--1--1--1--1--1--1--|
----------------------------|-------------------|--1--1--1--1--1--1--1--1--|


                                                      
--------------------------|--------------------------|
--------------------------|--------------------------|
--------------------------|--4--4--4--4--4--4--4--4--|
--4--4--4--4--4--4--4--4--|--4--4--4--4--4--4--4--4--|
--4--4--4--4--4--4--4--4--|--2--2--2--2--2--2--2--2--|
--4--4--4--4--4--4--4--4--|--------------------------|


                                                      
--------------------------|--------------------------|
--------------------------|--------------------------|
--6--6--6--6--6--6--6--6--|--------------------------|
--6--6--6--6--6--6--6--6--|--1--1--1--1--1--1--1--1--|
--4--4--4--4--4--4--4--4--|--1--1--1--1--1--1--1--1--|
--------------------------|--1--1--1--1--1--1--1--1--|


                                                                               
--------------------------|--------------------------|------------------------|
--------------------------|--------------------------|------------------------|
--------------------------|--4--4--4--4--4--4--4--4--|--4-------6----6--6--6--|
--4--4--4--4--4--4--4--4--|--4--4--4--4--4--4--4--4--|--4--4----6----6--6--6--|
--4--4--4--4--4--4--4--4--|--2--2--2--2--2--2--2--2--|--2--4----4----4--4--4--|
--4--4--4--4--4--4--4--4--|--------------------------|-----4------------------|


                                                      
--------------------------|--------------------------|
--------------------------|--------------------------|
--------------------------|--------------------------|
--1--1--1--1--1--1--1--1--|--4--4--4--4--4--4--4--4--|
--1--1--1--1--1--1--1--1--|--4--4--4--4--4--4--4--4--|
--1--1--1--1--1--1--1--1--|--4--4--4--4--4--4--4--4--|


                                                      
--------------------------|--------------------------|
--------------------------|--------------------------|
--4--4--4--4--4--4--4--4--|--6--6--6--6--6--6--6--6--|
--4--4--4--4--4--4--4--4--|--6--6--6--6--6--6--6--6--|
--2--2--2--2--2--2--2--2--|--4--4--4--4--4--4--4--4--|
--------------------------|--------------------------|


                                                      
--------------------------|--------------------------|
--------------------------|--------------------------|
--------------------------|--------------------------|
--1--1--1--1--1--1--1--1--|--4--4--4--4--4--4--4--4--|
--1--1--1--1--1--1--1--1--|--4--4--4--4--4--4--4--4--|
--1--1--1--1--1--1--1--1--|--4--4--4--4--4--4--4--4--|


                                                    Interlude -->
                    
--------------------------|------------------------|-------------------|
--------------------------|------------------------|-------------------|
--4--4--4--4--4--4--4--4--|--4-------6----6--6--6--|-------------------|
--4--4--4--4--4--4--4--4--|--4--4----6----6--6--6--|--1----------------|
--2--2--2--2--2--2--2--2--|--2--4----4----4--4--4--|--1----------------|
--------------------------|-----4------------------|--1----------------|


                                                                           
------------------|------|------|------|------|------|------|------|------|
------------------|------|------|------|------|------|------|------|------|
------------------|------|------|------|------|------|------|------|------|
------------------|------|------|------|------|------|------|------|------|
------------------|------|------|------|------|------|------|------|------|
------------------|------|------|------|------|------|------|------|------|


                                                                 
------|------|------|------|------|------|----------------------|
------|------|------|------|------|------|--2------2--2----2----|
------|------|------|------|------|------|----------------------|
------|------|------|------|------|------|--1------1--1----1----|
------|------|------|------|------|------|--1------1--1----1----|
------|------|------|------|------|------|--1------1--1----1----|


                                                                   
---------------------|----------------------|---------------------|
------2----2----2----|--2------2--2----2----|------2----2----2----|
---------------------|--3------3--3----3----|------3----3----3----|
------1----1----1----|--3------3--3----3----|------3----3----3----|
------1----1----1----|--1------1--1----1----|------1----1----1----|
------1----1----1----|----------------------|---------------------|


                                                                    
----------------------|---------------------|----------------------|
----------------------|---------------------|--2------2--2----2----|
--6------6--6----6----|------6----6----6----|--4------4--4----4----|
--6------6--6----6----|------6----6----6----|--4------4--4----4----|
--4------4--4----4----|------4----4----4----|--2------2--2----2----|
----------------------|---------------------|----------------------|


                                                                   
---------------------|----------------------|---------------------|
------2----2----2----|--2------2--2----2----|------2----2----2----|
------4----4----4----|----------------------|---------------------|
------4----4----4----|--1------1--1----1----|------1----1----1----|
------2----2----2----|--1------1--1----1----|------1----1----1----|
---------------------|--1------1--1----1----|------1----1----1----|


                                                                    
----------------------|---------------------|----------------------|
--2------2--2----2----|------2----2----2----|----------------------|
--3------3--3----3----|------3----3----3----|--6------6--6----6----|
--3------3--3----3----|------3----3----3----|--6------6--6----6----|
--1------1--1----1----|------1----1----1----|--4------4--4----4----|
----------------------|---------------------|----------------------|


                                                                   
---------------------|----------------------|---------------------|
---------------------|--2------2--2----2----|------2----2----2----|
------6----6----6----|--4------4--4----4----|------4----4----4----|
------6----6----6----|--4------4--4----4----|------4----4----4----|
------4----4----4----|--2------2--2----2----|------2----2----2----|
---------------------|----------------------|---------------------|


                                                      
--------------------------|--------------------------|
--2--------2--------2-----|-----2--------2-----------|
--------------------------|--------------------------|
--1--------1--------1-----|-----1--------1-----------|
--1--------1--------1-----|-----1--------1-----------|
--1--1--1--1--1--1--1--1--|--1--1--1--1--1--1--1--1--|


                                                      
--------------------------|--------------------------|
--2--------2--------2-----|-----2--------2-----2-----|
--3--------3--------3-----|-----3--------3-----3-----|
--3--------3--------3-----|-----3--------3-----3-----|
--1--1--1--1--1--1--1--1--|--1--1--1--1--1--1--1--1--|
--------------------------|--------------------------|


                                                      
--------------------------|--------------------------|
--------------------------|--------------------------|
--6--------6--------6-----|-----6--------6-----3-----|
--6--------6--------6-----|-----6--------6-----3-----|
--4--4--4--4--4--4--4--4--|--4--4--4--4--4--4--1--1--|
--------------------------|--------------------------|


                                                      
--------------------------|--------------------------|
--2--------2--------2--2--|--2--2--2--2--2-----2-----|
--4--------4--------4--4--|--4--4--4--4--4-----4-----|
--4--------4--------4--4--|--4--4--4--4--4-----4-----|
--2--2--2--2--2--2--2--2--|--2--2--2--2--2--2--2--2--|
--------------------------|--------------------------|


                                                      
--------------------------|--------------------------|
--2--------2--------2-----|-----2--------2-----------|
--------------------------|--------------------------|
--1--------1--------1-----|-----1--------1-----------|
--1--------1--------1-----|-----1--------1-----------|
--1--1--1--1--1--1--1--1--|--1--1--1--1--1--1--1--1--|


                                                      
--------------------------|--------------------------|
--2--------2--------2-----|-----2--------2-----2-----|
--3--------3--------3-----|-----3--------3-----3-----|
--3--------3--------3-----|-----3--------3-----3-----|
--1--1--1--1--1--1--1--1--|--1--1--1--1--1--1--1--1--|
--------------------------|--------------------------|


                                                      
--------------------------|--------------------------|
--------------------------|--------------------------|
--6--------6--------6-----|-----6--------6-----3-----|
--6--------6--------6-----|-----6--------6-----3-----|
--4--4--4--4--4--4--4--4--|--4--4--4--4--4--4--1--1--|
--------------------------|--------------------------|


                                               Chorus -->
                           
--------------------------|-------------------|--------------------------|
--2--------2-----2--2--2--|-------------------|--------------------------|
--4--------4-----4--4--4--|--6----------------|--------------------------|
--4--------4-----4--4--4--|--6----------------|--1--1--1--1--1--1--1--1--|
--2--2--2--2--2--2--2--2--|--4----------------|--1--1--1--1--1--1--1--1--|
--------------------------|-------------------|--1--1--1--1--1--1--1--1--|


                                                      
--------------------------|--------------------------|
--------------------------|--------------------------|
--------------------------|--4--4--4--4--4--4--4--4--|
--4--4--4--4--4--4--4--4--|--4--4--4--4--4--4--4--4--|
--4--4--4--4--4--4--4--4--|--2--2--2--2--2--2--2--2--|
--4--4--4--4--4--4--4--4--|--------------------------|


                                                      
--------------------------|--------------------------|
--------------------------|--------------------------|
--6--6--6--6--6--6--6--6--|--------------------------|
--6--6--6--6--6--6--6--6--|--1--1--1--1--1--1--1--1--|
--4--4--4--4--4--4--4--4--|--1--1--1--1--1--1--1--1--|
--------------------------|--1--1--1--1--1--1--1--1--|


                                                                               
--------------------------|--------------------------|------------------------|
--------------------------|--------------------------|------------------------|
--------------------------|--4--4--4--4--4--4--4--4--|--4-------6----6--6--6--|
--4--4--4--4--4--4--4--4--|--4--4--4--4--4--4--4--4--|--4--4----6----6--6--6--|
--4--4--4--4--4--4--4--4--|--2--2--2--2--2--2--2--2--|--2--4----4----4--4--4--|
--4--4--4--4--4--4--4--4--|--------------------------|-----4------------------|


                                                      
--------------------------|--------------------------|
--------------------------|--------------------------|
--------------------------|--------------------------|
--1--1--1--1--1--1--1--1--|--4--4--4--4--4--4--4--4--|
--1--1--1--1--1--1--1--1--|--4--4--4--4--4--4--4--4--|
--1--1--1--1--1--1--1--1--|--4--4--4--4--4--4--4--4--|


                                                      
--------------------------|--------------------------|
--------------------------|--------------------------|
--4--4--4--4--4--4--4--4--|--6--6--6--6--6--6--6--6--|
--4--4--4--4--4--4--4--4--|--6--6--6--6--6--6--6--6--|
--2--2--2--2--2--2--2--2--|--4--4--4--4--4--4--4--4--|
--------------------------|--------------------------|


                                                      
--------------------------|--------------------------|
--------------------------|--------------------------|
--------------------------|--------------------------|
--1--1--1--1--1--1--1--1--|--4--4--4--4--4--4--4--4--|
--1--1--1--1--1--1--1--1--|--4--4--4--4--4--4--4--4--|
--1--1--1--1--1--1--1--1--|--4--4--4--4--4--4--4--4--|


                                                    Outro -->
                           
--------------------------|------------------------|--------------------------|
--------------------------|------------------------|--------------------------|
--4--4--4--4--4--4--4--4--|--4-------6----6--6--6--|--4--4--4--4--4--4--4--4--|
--4--4--4--4--4--4--4--4--|--4--4----6----6--6--6--|--4--4--4--4--4--4--4--4--|
--2--2--2--2--2--2--2--2--|--2--4----4----4--4--4--|--2--2--2--2--2--2--2--2--|
--------------------------|-----4------------------|--------------------------|


                                                                             
------------------------|--------------------------|------------------------|
------------------------|--------------------------|------------------------|
--4-------6----6--6--6--|--4--4--4--4--4--4--4--4--|--4-------6----6--6--6--|
--4--4----6----6--6--6--|--4--4--4--4--4--4--4--4--|--4--4----6----6--6--6--|
--2--4----4----4--4--4--|--2--2--2--2--2--2--2--2--|--2--4----4----4--4--4--|
-----4------------------|--------------------------|-----4------------------|


                                                                               
--------------------------|------------------------|--------------------------|
--------------------------|------------------------|--------------------------|
--4--4--4--4--4--4--4--4--|--4-------6----6--6--6--|--4--4--4--4--4--4--4--4--|
--4--4--4--4--4--4--4--4--|--4--4----6----6--6--6--|--4--4--4--4--4--4--4--4--|
--2--2--2--2--2--2--2--2--|--2--4----4----4--4--4--|--2--2--2--2--2--2--2--2--|
--------------------------|-----4------------------|--------------------------|


                                                                
------------------------|-------------------|------------------|
------------------------|-------------------|------------------|
--4-------6----6--6--6--|-------------------|------------------|
--4--4----6----6--6--6--|--1----------------|------------------|
--2--4----4----4--4--4--|--1----------------|------------------|
-----4------------------|--1----------------|------------------|


                                       
------------------|------------------||
------------------|------------------||
------------------|------------------||
------------------|------------------||
------------------|------------------||
------------------|------------------||






Lead Guitar -->



Intro -->
Acoustic Guitar -->                                                                            
E||-------------------|--------------------------|--------------------------|
B||--------------6----|-----7--------7--------7--|--------7-----6-----6-----|
G||-------------------|--------8--------8--------|--8--------8-----8-----8--|
D||-------------------|-----------8--------8-----|-----8--------------------|
A||-------------------|--------------------------|--------------------------|
D||-------------------|--1-----------------------|--------------------------|


                                                                               
--------------------------|------------------------|--------------------------|
-----6--------6--------6--|--------6---------------|-----9--------9--------9--|
--------6--------6--------|--6--------6------------|--------6--------6--------|
--8--------8--------8-----|-----8--------8----9----|--6--------6--------6-----|
--------------------------|------------------------|--------------------------|
--------------------------|------------------------|--------------------------|


                                                                    
------------------------|-----------------------|------------------|
--------9-----7----6----|-----------------------|------------------|
--6--------6------------|--8------10------11----|------------------|
-----6------------------|--9--------------11----|------------------|
------------------------|--9--------------9-----|------------------|
------------------------|-----------------------|------------------|


Distorted Guitar -->                                                                          
------------------------------------|--------------------------------------|
------------------------------------|--------------------------------------|
--8--8-10--10-11--13--13-13--13-13--|--11--11-11--11-11--13--13-13--13-13--|
------------------------------------|--------------------------------------|
--6--6-8---8--9---11--11-11--11-11--|--9---9--9---9--9---11--11-11--11-11--|
------------------------------------|--------------------------------------|


                                                                            
------------------------------------|--------------------------------------|
------------------------------------|--------------------------------------|
--8--8-10--10-11--13--13-13--13-13--|--11--11-11--11-11--10--10-10--10-10--|
------------------------------------|--------------------------------------|
--6--6-8---8--9---11--11-11--11-11--|--9---9--9---9--9---8---8--8---8--8---|
------------------------------------|--------------------------------------|


                                                                            
------------------------------------|--------------------------------------|
------------------------------------|--------------------------------------|
--8--8-10--10-11--13--13-13--13-10--|--11--11-11--11-11--13--13-13--13-13--|
------------------------------------|--------------------------------------|
--6--6-8---8--9---11--11-11--11-8---|--9---9--9---9--9---11--11-11--11-11--|
------------------------------------|--------------------------------------|


                                                                            
------------------------------------|--------------------------------------|
------------------------------------|--------------------------------------|
--8--8-10--10-11--13--13-13--13-10--|--11--11-11--11-11--13--13-13--13-13--|
------------------------------------|--------------------------------------|
--6--6-8---8--9---11--11-11--11-8---|--9---9--9---9--9---11--11-11--11-11--|
------------------------------------|--------------------------------------|


Verse -->       
                                                   
-------------------|------------------|------------------|
-------------------|------------------|------------------|
--8----------------|------------------|------------------|
-------------------|------------------|------------------|
--6----------------|------------------|------------------|
-------------------|------------------|------------------|


                                                                     
----------------------|----------------------|----------------------|
----------------------|----------------------|----------------------|
----8----8----8----8--|----8----8----8----8--|----8----8----8----8--|
----------------------|----------------------|----------------------|
----6----6----6----6--|----6----6----6----6--|----6----6----6----6--|
----------------------|----------------------|----------------------|


                                                              
----------------------|--------------------------------------|
----------------------|--------------------------------------|
----8----8----8----8--|--13--13-13--13-13--13--13-13--13-13--|
----------------------|--------------------------------------|
----6----6----6----6--|--11--11-11--11-11--11--11-11--11-11--|
----------------------|--------------------------------------|


                           Chorus -->  
                         
--------------------------|--------------------------|
--------------------------|--------------------------|
--13----11----10----------|--8--8--8--8--8--8--8--8--|
--------------------11----|--------------------------|
--11----------------------|--6--6--6--6--6--6--6--6--|
--------------------------|--------------------------|


                                                      
--------------------------|--------------------------|
--------------------------|--------------------------|
--8--8--8--8--8--8--8--8--|--8--8--8--8--8--8--8--8--|
--------------------------|--------------------------|
--6--6--6--6--6--6--6--6--|--6--6--6--6--6--6--6--6--|
--------------------------|--------------------------|


                                                              
----------------------------------|--------------------------|
----------------------------------|--------------------------|
--10--10--10--10--10--10--10--10--|--8--8--8--8--8--8--8--8--|
----------------------------------|--------------------------|
--8---8---8---8---8---8---8---8---|--6--6--6--6--6--6--6--6--|
----------------------------------|--------------------------|


                                                      
--------------------------|--------------------------|
--------------------------|--------------------------|
--8--8--8--8--8--8--8--8--|--8--8--8--8--8--8--8--8--|
--------------------------|--------------------------|
--6--6--6--6--6--6--6--6--|--6--6--6--6--6--6--6--6--|
--------------------------|--------------------------|


                                                         
-----------------------------|--------------------------|
-----------------------------|--------------------------|
--8--11----13----13--13--13--|--8--8--8--8--8--8--8--8--|
-----------------------------|--------------------------|
--6--9-----11----11--11--11--|--6--6--6--6--6--6--6--6--|
-----------------------------|--------------------------|


                                                      
--------------------------|--------------------------|
--------------------------|--------------------------|
--8--8--8--8--8--8--8--8--|--8--8--8--8--8--8--8--8--|
--------------------------|--------------------------|
--6--6--6--6--6--6--6--6--|--6--6--6--6--6--6--6--6--|
--------------------------|--------------------------|


                                                              
----------------------------------|--------------------------|
----------------------------------|--------------------------|
--10--10--10--10--10--10--10--10--|--8--8--8--8--8--8--8--8--|
----------------------------------|--------------------------|
--8---8---8---8---8---8---8---8---|--6--6--6--6--6--6--6--6--|
----------------------------------|--------------------------|


                                                      
--------------------------|--------------------------|
--------------------------|--------------------------|
--8--8--8--8--8--8--8--8--|--8--8--8--8--8--8--8--8--|
--------------------------|--------------------------|
--6--6--6--6--6--6--6--6--|--6--6--6--6--6--6--6--6--|
--------------------------|--------------------------|


                                                                   
-----------------------------|------------------------------------|
-----------------------------|------------------------------------|
--8--11----13----13--13--13--|--8--8-10--10-11--13--13-13--13-13--|
-----------------------------|------------------------------------|
--6--9-----11----11--11--11--|--6--6-8---8--9---11--11-11--11-11--|
-----------------------------|------------------------------------|


                                                                            
--------------------------------------|------------------------------------|
--------------------------------------|------------------------------------|
--11--11-11--11-11--13--13-13--13-13--|--8--8-10--10-11--13--13-13--13-13--|
--------------------------------------|------------------------------------|
--9---9--9---9--9---11--11-11--11-11--|--6--6-8---8--9---11--11-11--11-11--|
--------------------------------------|------------------------------------|


                                                                            
--------------------------------------|------------------------------------|
--------------------------------------|------------------------------------|
--11--11-11--11-11--10--10-10--10-10--|--8--8-10--10-11--13--13-13--13-10--|
--------------------------------------|------------------------------------|
--9---9--9---9--9---8---8--8---8--8---|--6--6-8---8--9---11--11-11--11-8---|
--------------------------------------|------------------------------------|


                                                                            
--------------------------------------|------------------------------------|
--------------------------------------|------------------------------------|
--11--11-11--11-11--13--13-13--13-13--|--8--8-10--10-11--13--13-13--13-10--|
--------------------------------------|------------------------------------|
--9---9--9---9--9---11--11-11--11-11--|--6--6-8---8--9---11--11-11--11-8---|
--------------------------------------|------------------------------------|


                                       Verse -->     
                                  
--------------------------------------|-------------------|------------------|
--------------------------------------|-------------------|------------------|
--11--11-11--11-11--13--13-13--13-13--|--8----------------|------------------|
--------------------------------------|-------------------|------------------|
--9---9--9---9--9---11--11-11--11-11--|--6----------------|------------------|
--------------------------------------|-------------------|------------------|


                                                                 
------------------|----------------------|----------------------|
------------------|----------------------|----------------------|
------------------|----8----8----8----8--|----8----8----8----8--|
------------------|----------------------|----------------------|
------------------|----6----6----6----6--|----6----6----6----6--|
------------------|----------------------|----------------------|


                                              
----------------------|----------------------|
----------------------|----------------------|
----8----8----8----8--|----8----8----8----8--|
----------------------|----------------------|
----6----6----6----6--|----6----6----6----6--|
----------------------|----------------------|


                                                                  
--------------------------------------|--------------------------|
--------------------------------------|--------------------------|
--13--13-13--13-13--13--13-13--13-13--|--13----11----10----------|
--------------------------------------|--------------------11----|
--11--11-11--11-11--11--11-11--11-11--|--11----------------------|
--------------------------------------|--------------------------|


Chorus -->
                                                      
--------------------------|--------------------------|
--------------------------|--------------------------|
--8--8--8--8--8--8--8--8--|--8--8--8--8--8--8--8--8--|
--------------------------|--------------------------|
--6--6--6--6--6--6--6--6--|--6--6--6--6--6--6--6--6--|
--------------------------|--------------------------|


                                                              
--------------------------|----------------------------------|
--------------------------|----------------------------------|
--8--8--8--8--8--8--8--8--|--10--10--10--10--10--10--10--10--|
--------------------------|----------------------------------|
--6--6--6--6--6--6--6--6--|--8---8---8---8---8---8---8---8---|
--------------------------|----------------------------------|


                                                      
--------------------------|--------------------------|
--------------------------|--------------------------|
--8--8--8--8--8--8--8--8--|--8--8--8--8--8--8--8--8--|
--------------------------|--------------------------|
--6--6--6--6--6--6--6--6--|--6--6--6--6--6--6--6--6--|
--------------------------|--------------------------|


                                                         
--------------------------|-----------------------------|
--------------------------|-----------------------------|
--8--8--8--8--8--8--8--8--|--8--11----13----13--13--13--|
--------------------------|-----------------------------|
--6--6--6--6--6--6--6--6--|--6--9-----11----11--11--11--|
--------------------------|-----------------------------|


                                                      
--------------------------|--------------------------|
--------------------------|--------------------------|
--8--8--8--8--8--8--8--8--|--8--8--8--8--8--8--8--8--|
--------------------------|--------------------------|
--6--6--6--6--6--6--6--6--|--6--6--6--6--6--6--6--6--|
--------------------------|--------------------------|


                                                              
--------------------------|----------------------------------|
--------------------------|----------------------------------|
--8--8--8--8--8--8--8--8--|--10--10--10--10--10--10--10--10--|
--------------------------|----------------------------------|
--6--6--6--6--6--6--6--6--|--8---8---8---8---8---8---8---8---|
--------------------------|----------------------------------|


                                                      
--------------------------|--------------------------|
--------------------------|--------------------------|
--8--8--8--8--8--8--8--8--|--8--8--8--8--8--8--8--8--|
--------------------------|--------------------------|
--6--6--6--6--6--6--6--6--|--6--6--6--6--6--6--6--6--|
--------------------------|--------------------------|


                                                         
--------------------------|-----------------------------|
--------------------------|-----------------------------|
--8--8--8--8--8--8--8--8--|--8--11----13----13--13--13--|
--------------------------|-----------------------------|
--6--6--6--6--6--6--6--6--|--6--9-----11----11--11--11--|
--------------------------|-----------------------------|


Interlude -->
Acoustic Guitar -->                                                 
--------------------------|--------------------------|
-----7--------7--------7--|--------7-----6-----6-----|
--------8--------8--------|--8--------8-----8-----8--|
-----------8--------8-----|-----8--------------------|
--------------------------|--------------------------|
--1-----------------------|--------------------------|


                                                                               
--------------------------|------------------------|--------------------------|
-----6--------6--------6--|--------6---------------|-----9--------9--------9--|
--------6--------6--------|--6--------6------------|--------6--------6--------|
--8--------8--------8-----|-----8--------8----9----|--6--------6--------6-----|
--------------------------|------------------------|--------------------------|
--------------------------|------------------------|--------------------------|


                                                                      
------------------------|-----------------------|--------------------|
--------9-----7----6----|-----------------------|--------------------|
--6--------6------------|--8------10------11----|--------------10----|
-----6------------------|--9------9-------9-----|--------------------|
------------------------|--9------9-------9-----|--------------------|
------------------------|-----------------------|--------------------|


                                                      
--------------------------|--------------------------|
-----7--------7--------7--|--------7-----6-----6-----|
--------8--------8--------|--8--------8-----8-----8--|
-----------8--------8-----|-----8--------------------|
--------------------------|--------------------------|
--1-----------------------|--------------------------|


                                                                               
--------------------------|------------------------|--------------------------|
-----6--------6--------6--|--------6---------------|-----9--------9--------9--|
--------6--------6--------|--6--------6------------|--------6--------6--------|
--8--------8--------8-----|-----8--------8----9----|--6--------6--------6-----|
--------------------------|------------------------|--------------------------|
--------------------------|------------------------|--------------------------|


                                                           Distorted Guitar -->                
------------------------|-----------------------|--------------------------|
--------9-----7----6----|-----------------------|--------------------------|
--6--------6------------|--8------10------11----|----------10--10--10--10--|
-----6------------------|--9------9-------9-----|--------------------------|
------------------------|--9------9-------9-----|----------8---8---8---8---|
------------------------|-----------------------|--------------------------|


                                                                               
--------------------------|---------------------------|-----------------------|
--------------------------|---------------------------|-----------------------|
--11------11--11----11----|------11----10--10--10--8--|--6------6--6--6--6----|
--------------------------|---------------------------|-----------------------|
--9-------9---9-----9-----|------9-----8---8---8---6--|--4------4--4--4--4----|
--------------------------|---------------------------|-----------------------|


                                                                      
---------------------|-----------------------|-----------------------|
---------------------|-----------------------|-----------------------|
------6----6----6----|--6------6--6--6--6----|------6----11----10----|
---------------------|-----------------------|-----------------------|
------4----4----4----|--4------4--4--4--4----|------4----9-----8-----|
---------------------|-----------------------|-----------------------|


                                                    
-----------------------|---------------------------|
-----------------------|---------------------------|
--8------8--8--8--8----|------8----10--10--10--10--|
-----------------------|---------------------------|
--6------6--6--6--6----|------6----8---8---8---8---|
-----------------------|---------------------------|


                                                                               
----------------------------|-------------------------|-----------------------|
----------------------------|-------------------------|-----------------------|
--11------11--11--11--11----|------13----10----10--8--|--6------6--6--6--6----|
----------------------------|-------------------------|-----------------------|
--9-------9---9---9---9-----|------11----8-----8---6--|--4------4--4--4--4----|
----------------------------|-------------------------|-----------------------|


                                                                    
---------------------|-----------------------|---------------------|
---------------------|-----------------------|---------------------|
------6----6----3----|--6------6--6--6--6----|------6----6----3----|
---------------------|-----------------------|---------------------|
------4----4----1----|--4------4--4--4--4----|------4----4----1----|
---------------------|-----------------------|---------------------|


                                                Interlude/Verse -->
                              
-----------------------|-----------------------|-----------------------------|
-----------------------|-----------------------|-----------------------------|
--8------8--8--8--8----|------8----10----11----|--11--------11--------11-----|
-----------------------|-----------------------|-----------------------------|
--6------6--6--6--6----|------6----8-----9-----|--9---9--9--9---9--9--9---9--|
-----------------------|-----------------------|-----------------------------|


                                                              
-------------------------------|-----------------------------|
-------------------------------|-----------------------------|
-----11--------11--11--11--11--|--10--------10--------10-----|
-------------------------------|-----------------------------|
--9--9---9--9--9---9---9---9---|--8---8--8--8---8--8--8---8--|
-------------------------------|-----------------------------|


                                                                 
-----------------------------|----------------------------------|
-----------------------------|----------------------------------|
-----10--------10-----10-----|--13----------13----------13------|
-----------------------------|----------------------------------|
--8--8---8--8--8---8--8---8--|--11--11--11--11--11--11--11--11--|
-----------------------------|----------------------------------|


                                                                  
----------------------------------|------------------------------|
----------------------------------|------------------------------|
------13----------13------13------|--11--------11--------18--18--|
----------------------------------|------------------------------|
--11--11--11--11--11--11--11--11--|--9---9--9--9---9--9--16--16--|
----------------------------------|------------------------------|


                                                                 
----------------------------------|-----------------------------|
----------------------------------|-----------------------------|
--18--18--11--11--10--10--10--10--|--11--------11--------11-----|
----------------------------------|-----------------------------|
--16--16--9---9---8---8---8---8---|--9---9--9--9---9--9--9---9--|
----------------------------------|-----------------------------|


                                                              
-------------------------------|-----------------------------|
-------------------------------|-----------------------------|
-----13----------11-----10-----|--10--------10--------10-----|
-------------------------------|-----------------------------|
--9--11--11--11--9---9--8---8--|--8---8--8--8---8--8--8---8--|
-------------------------------|-----------------------------|


                                                                 
-----------------------------|----------------------------------|
-----------------------------|----------------------------------|
-----10--------8-----18------|--13----------13----------13------|
-----------------------------|----------------------------------|
--8--8---8--8--6--6--16--16--|--11--11--11--11--11--11--11--11--|
-----------------------------|----------------------------------|


                                                                   
----------------------------------|-------------------------------|
----------------------------------|-------------------------------|
------13----------13------13------|--11--------11-----11--11--11--|
----------------------------------|-------------------------------|
--11--11--11--11--11--11--11--11--|--9---9--9--9---9--9---9---9---|
----------------------------------|-------------------------------|


                           Chorus -->        
                   
--------------------------|--------------------------|
--------------------------|--------------------------|
--13----11----10----------|--8--8--8--8--8--8--8--8--|
--------------------11----|--------------------------|
--11----------------------|--6--6--6--6--6--6--6--6--|
--------------------------|--------------------------|


                                                      
--------------------------|--------------------------|
--------------------------|--------------------------|
--8--8--8--8--8--8--8--8--|--8--8--8--8--8--8--8--8--|
--------------------------|--------------------------|
--6--6--6--6--6--6--6--6--|--6--6--6--6--6--6--6--6--|
--------------------------|--------------------------|


                                                              
----------------------------------|--------------------------|
----------------------------------|--------------------------|
--10--10--10--10--10--10--10--10--|--8--8--8--8--8--8--8--8--|
----------------------------------|--------------------------|
--8---8---8---8---8---8---8---8---|--6--6--6--6--6--6--6--6--|
----------------------------------|--------------------------|


                                                      
--------------------------|--------------------------|
--------------------------|--------------------------|
--8--8--8--8--8--8--8--8--|--8--8--8--8--8--8--8--8--|
--------------------------|--------------------------|
--6--6--6--6--6--6--6--6--|--6--6--6--6--6--6--6--6--|
--------------------------|--------------------------|


                                                         
-----------------------------|--------------------------|
-----------------------------|--------------------------|
--8--11----13----13--13--13--|--8--8--8--8--8--8--8--8--|
-----------------------------|--------------------------|
--6--9-----11----11--11--11--|--6--6--6--6--6--6--6--6--|
-----------------------------|--------------------------|


                                                      
--------------------------|--------------------------|
--------------------------|--------------------------|
--8--8--8--8--8--8--8--8--|--8--8--8--8--8--8--8--8--|
--------------------------|--------------------------|
--6--6--6--6--6--6--6--6--|--6--6--6--6--6--6--6--6--|
--------------------------|--------------------------|


                                                              
----------------------------------|--------------------------|
----------------------------------|--------------------------|
--10--10--10--10--10--10--10--10--|--8--8--8--8--8--8--8--8--|
----------------------------------|--------------------------|
--8---8---8---8---8---8---8---8---|--6--6--6--6--6--6--6--6--|
----------------------------------|--------------------------|


                                                      
--------------------------|--------------------------|
--------------------------|--------------------------|
--8--8--8--8--8--8--8--8--|--8--8--8--8--8--8--8--8--|
--------------------------|--------------------------|
--6--6--6--6--6--6--6--6--|--6--6--6--6--6--6--6--6--|
--------------------------|--------------------------|


                              Outro -->
                           
-----------------------------|--------------------------|
-----------------------------|--------------------------|
--8--11----13----13--13--13--|--8--8--8--8--8--8--8--8--|
-----------------------------|--------------------------|
--6--9-----11----11--11--11--|--6--6--6--6--6--6--6--6--|
-----------------------------|--------------------------|


                                                         
-----------------------------|--------------------------|
-----------------------------|--------------------------|
--8--11----13----13--13--13--|--8--8--8--8--8--8--8--8--|
-----------------------------|--------------------------|
--6--9-----11----11--11--11--|--6--6--6--6--6--6--6--6--|
-----------------------------|--------------------------|


                                                         
-----------------------------|--------------------------|
-----------------------------|--------------------------|
--8--11----13----13--13--13--|--8--8--8--8--8--8--8--8--|
-----------------------------|--------------------------|
--6--9-----11----11--11--11--|--6--6--6--6--6--6--6--6--|
-----------------------------|--------------------------|


                                                         
-----------------------------|--------------------------|
-----------------------------|--------------------------|
--8--11----13----13--13--13--|--8--8--8--8--8--8--8--8--|
-----------------------------|--------------------------|
--6--9-----11----11--11--11--|--6--6--6--6--6--6--6--6--|
-----------------------------|--------------------------|


                                                                     
-----------------------------|-------------------|------------------|
-----------------------------|-------------------|------------------|
--8--11----13----13--13--13--|--8----------------|------------------|
-----------------------------|-------------------|------------------|
--6--9-----11----11--11--11--|--6----------------|------------------|
-----------------------------|-------------------|------------------|


                                       
------------------|------------------||
------------------|------------------||
------------------|------------------||
------------------|------------------||
------------------|------------------||
------------------|------------------||






Guitar fills on recording (All in the chorus\')


Fill 1 (in chorus\')                                                                                
------------------------|
------------------------|
------11----10----------|
------------------11----|
------------------------|
------------------------|



Fill 2 (halfway through chorus\')                                                          
-----------------------------|
-----------------------------|
--11--------10---------------|
------8--8------8--8--11--8--|
-----------------------------|
-----------------------------|


                                                          
-----------------------------|---------------------------|
-----------------------------|---------------------------|
--11--------10---------------|--11--------8--------8-----|
------8--8------8--8--11--8--|------8--8-----8--8-----8--|
-----------------------------|---------------------------|
-----------------------------|---------------------------|


                                                         
--------------------------|-----------------------------|
--------------------------|-----------------------------|
--8-----11----10----------|--11--------10---------------|
-----8--------------11----|------8--8------8--8--11--8--|
--------------------------|-----------------------------|
--------------------------|-----------------------------|


                                                          
-----------------------------|---------------------------|
-----------------------------|---------------------------|
--11--------10---------------|--11--------8--------8-----|
------8--8------8--8--11--8--|------8--8-----8--8-----8--|
-----------------------------|---------------------------|
-----------------------------|---------------------------|


                                                                                
-----------------------|
-----------------------|
--8--11----10----------|
-----------------------|
-----------------------|
-----------------------|





Comments


Popular Rise Against tabs & chords
Broken English 3 Bass Tabs
Great Awakening Bass Tabs
Survive Bass Tabs
This Is Letting Go Bass Tabs
Swing Life Away 5 Chords
401 Kill Tabs
From Heads Unworthy Intro Tabs
Like The Angel 5 Tabs
State Of The Union Intro Tabs
Kotov Syndrome Ukulele


Song lyrics



↑ Back to top | Tablatures and chords are parodies/interpretations of the original songs. You may use it for private study, scholarship, research or language learning purposes only
© 2014 AZChords.com Contact us | Privacy policy | DMCA | Add/correct tabs | Request tabs | Top 50 tabs