>
 >
Broken English

Broken English Guitar Tabs

Rise Against - Broken English chords, tabs, tablatures, lyrics

Guitar lessons | Add/correct | Request | Top 50 tabs Artists:  A B C D E F G H I J K L M N O P Q R S T U V W X Y Z 0-9

Broken English Guitar Tabs – Rise Against

CD, Sheet music, Poster

Do you like Broken English? Share with your friends now
Bass TabsBass Tabs v2Bass Tabs v3TabsTabs v2Tabs v3
Rise Against: Broken English
Tuning:Dropped D
	
  
  This should be played in Eb tuning but its just the same and its easier in dropped D
  The numbers of things arnt right but just listen and u'll figure it out.

opening riff/verse   guitar 1
E|-------------------------------------------------------------------------------| 
B|-------------------------------------------------------------------------------|
G|---------------------------------------8---7--------------------33333----------|
D|---5---5555---6---6666----8---888888---x---x------1111111111----33333----------|
A|---3---3333---3---3333----6---666666---6---5------1111111111----11111----------|
D|--------------------------6---666666--------------1111111111-------------------|


play first part twice then guitar 2 comes in with this over guitar 1
E|--8-8-8-11-11-11---------------------------------------------------------------|
B|---8-8----8--8---11-11-11-11--8-9-8-8-8-9-9-9----------------------------------|
G|-------------------8--8------------8-8---8-8--10-10-10-10-8-7-8----------------|
D|------------------------------------------------8--8---------------------------|
A|-------------------------------------------------------------------------------|
D|-------------------------------------------------------------------------------|


 verse x2


..so push us down......and we get right back up again
E|-------------------------------------------------------------------------------|
B|-------------------------------------------------------------------------------|
G|-------------------------------------------------------------------------------|
D|--6--66666666666---8-----------------------------------------------------------|
A|--6--66666666666---8-----------------------------------------------------------|
D|--6--66666666666---8-----------------------------------------------------------|
     pm...........


chorus   		      1st/3rd time 2nd time          
E|----------------------------|-----------|------------|-------------------------|
B|----------------------------|-----------|------------|-------------------------|
G|--555--88-------------------|-----------|------------|-------------------------|
D|--555--88--55--88--6--66666-|--3--33333-|-8--8--8--8-|-5--555555---88-6666--8--|
A|--333--66--55--88--6--66666-|--3--33333-|-8--8--8--8-|-5--555555---88-6666--8--|
D|-----------55--88--6--66666-|--3--33333-|-8--8--8--8-|-5--555555---88-6666--8--|
                      pm.....    pm.....                  pm......


let the blind lead the blind.....
E|-------------------------------------------------------------------------------|
B|-------------------------------------------------------------------------------|
G|--5--------------------------------3-------------------------------------------|x2
D|--5---------6-----------1----------3-------------------------------------------|
A|--3---------6-----------1----------1-------------------------------------------|
D|------------6-----------1------------------------------------------------------|


verse
E|-------------------------------------------------------------------------------| 
B|-------------------------------------------------------------------------------|
G|---------------------------------------8---7--------------------33333----------|x2
D|---5---5555---6---6666----8---888888---x---x------1111111111----33333----------|
A|---3---3333---3---3333----6---666666---6---5------1111111111----11111----------|
D|--------------------------6---666666--------------1111111111-------------------|


..so push us down......and we get right back up again
E|-------------------------------------------------------------------------------|
B|-------------------------------------------------------------------------------|
G|-------------------------------------------------------------------------------|
D|--6--66666666666---8-----------------------------------------------------------|
A|--6--66666666666---8-----------------------------------------------------------|
D|--6--66666666666---8-----------------------------------------------------------|
     pm...........


chorus   		      1st/3rd time 2nd time          
E|----------------------------|-----------|------------|-------------------------|
B|----------------------------|-----------|------------|-------------------------|
G|--555--88-------------------|-----------|------------|-------------------------|
D|--555--88--55--88--6--66666-|--3--33333-|-8--8--8--8-|-5--555555---88-6666--8--|
A|--333--66--55--88--6--66666-|--3--33333-|-8--8--8--8-|-5--555555---88-6666--8--|
D|-----------55--88--6--66666-|--3--33333-|-8--8--8--8-|-5--555555---88-6666--8--|
                      pm.....    pm.....                  pm......


guitar 1
E|-------------------------------------------------------------------------------|
B|-------------------------------------------------------------------------------|
G|---8/--7---5555------------------------8/--7---5555----------------------------|
D|---x/--x---5555----1111----66666666----x/--x---5555--1111----66666666----------|
A|---6/--5---3333----1111----66666666----6/--5---3333--1111----66666666----------|
D|-------------------1111----66666666------------------1111----66666666----------|


E|--------------------------------------------------------------------------------|
B|--------------------------------------------------------------------------------|
G|---8/--7---5555-----------------------------------------------------------------|
D|---x/--x---5555----1111---6666---3333---5-555555-----888--6-666---8-------------|
A|---6/--5---3333----1111---6666---3333---5-555555-----888--6-666---8-------------|
D|-------------------1111---6666---3333---5-555555-----888--6-666---8-------------|

solo
E|--11------------------------------------------------------------11--------------|
B|--------------------------------------------------------------------------------|
G|------13-12---13-12----12-12/13-12----------------------------------13-12--13-12|
D|-----------13------13-------------13-13-13/15-13-13-13-13/12-13----------13-----|
A|--------------------------------------------------------------------------------|
D|--------------------------------------------------------------------------------|

E|--------------------------------------------11----------------------------------|
B|--------------------------------------------------------------------------------|
G|---12-12/13-12---15-15-15-13-12-13-15/13/12----13-12--13-12---12-12/13-12-------|
D|13--------------------------------------------------13-----13------------13-13--|
A|--------------------------------------------------------------------------------|
D|--------------------------------------------------------------------------------|


E|-------------------------------------------------------------------------------|
B|-------------------------------------------------------------------------------|
G|--------------------------------------------------12---------------------------|
D|-13/15-13-12-12-12/13-12--------------13----13/15------------------------------|
A|-------------------------13-----13/15------------------------------------------|
D|-------------------------------------------------------------------------------|



back to this

E|-------------------------------------------------------------------------------|
B|-------------------------------------------------------------------------------|
G|---8/--7---5555------------------------8/--7---5555----------------------------|
D|---x/--x---5555----1111----66666666----x/--x---5555--1111----66666666----------|
A|---6/--5---3333----1111----66666666----6/--5---3333--1111----66666666----------|
D|-------------------1111----66666666------------------1111----66666666----------|


E|--------------------------------------------------------------------------------|
B|--------------------------------------------------------------------------------|
G|---8/--7---5555-----------------------------------------------------------------|
D|---x/--x---5555--1111---6666---3333---5-555555-----888--6-666---8---------------|
A|---6/--5---3333--1111---6666---3333---5-555555-----888--6-666---8---------------|
D|-----------------1111---6666---3333---5-555555-----888--6-666---8---------------|



chorus   		      1st/3rd time 2nd time          
E|----------------------------|-----------|------------|-------------------------|
B|----------------------------|-----------|------------|-------------------------|
G|--555--88-------------------|-----------|------------|-------------------------|
D|--555--88--55--88--6--66666-|--3--33333-|-8--8--8--8-|-5--555555---88-6666--8--|
A|--333--66--55--88--6--66666-|--3--33333-|-8--8--8--8-|-5--555555---88-6666--8--|
D|-----------55--88--6--66666-|--3--33333-|-8--8--8--8-|-5--555555---88-6666--8--|
                      pm.....    pm.....                  pm......


ending
E|--------------------------|
B|--------------------------|
G|--------------------------|
D|--6-----8----10-----------|
A|--6-----8----10-----------|
D|--6-----8----10-----------|


thats it.....im pretty sure its all right

PLEASE RATE THIS TAB!!!!!





Comments


Popular Rise Against tabs & chords
Collapse Bass Tabs
Faint Resemblance 3 Bass Tabs
Heaven Knows 2 Bass Tabs
Injection 3 Bass Tabs
Swing Life Away 11 Chords
Grammatizator Tabs
Help Is On The Way 2 Tabs
Lanterns Tabs
Rumors Of My Demise Have Been Greatly Exaggerated 2 Tabs
Swing Life Away 1 Tabs


Song lyrics



↑ Back to top | Tablatures and chords are parodies/interpretations of the original songs. You may use it for private study, scholarship, research or language learning purposes only
© 2014 AZChords.com Contact us | Privacy policy | DMCA | Add/correct tabs | Request tabs | Top 50 tabs