» » »

Blood To Bleed Bass tabs (ver.3)

Artists:  A B C D E F G H I J K L M N O P Q R S T U V W X Y Z # 

Blood To Bleed Bass tabs (ver.3)

Rise Against
Rating:
0/5 (0 votes)

Tabs too difficult? Try these video lessons and learn fast.
                Intro

|-777/14-14-10-12-12-12--9--9--9-|
|-000--0--0--0--0--0--0-10-10-10-|
|--------------------------------| x4
|--------------------------------|

Verse

|-777/14-14-10-12-12-12--9--9--9-|    |-------------------------------|
|-000--0--0--0--0--0--0-10-10-10-|    |-------------------------------|
|--------------------------------| x3 |----------------5-5-5-5-5-5-5-5|
|--------------------------------|    |-1-1-1-1-3-3-3-3---------------|

Chorus

|------------------------------------|---------------------------------|
|------------------------------------|---------------------------------|
|11111111----------33333333-55555555-|11111111--------33333333-00000000|
|---------11111111-------------------|--------11111111-----------------|

|------------------------------------|---------------------------------|
|------------------------------------|---------------------------------|
|11111111----------33333333-55555555-|1111111111111111-3333333333333333|
|---------11111111-------------------|---------------------------------|

Verse

|-777/14-14-10-12-12-12--9--9--9-|    |-------------------------------|
|-000--0--0--0--0--0--0-10-10-10-|    |-------------------------------|
|--------------------------------| x3 |----------------5-5-5-5-5-5-5-5|
|--------------------------------|    |-1-1-1-1-3-3-3-3---------------|

Chorus

|------------------------------------|---------------------------------|
|------------------------------------|---------------------------------|
|11111111----------33333333-55555555-|11111111--------33333333-00000000|
|---------11111111-------------------|--------11111111-----------------|

|------------------------------------|---------------------------------|
|------------------------------------|---------------------------------|
|11111111----------33333333-55555555-|1111111111111111-3333333333333333|
|---------11111111-------------------|---------------------------------|

Solo

|------------------------------------------------------|
|------------------------------------------------------|
|-555555555555-111111111111---------------3333333333333| x3 
|---------------------------1111111111111--------------|

|------------------------------------------------------|
|------------------------------------------------------|
|-555555555555-111111111111---------------0000000000000| x3 
|---------------------------1111111111111--------------|

Verse

|-777/14-14-10-12-12-12-9--9--9--|    |-10-10-10-12-12-12-777777-|
|-000--0--0--0--0--0--0-10-10-10-|    |--0--0--0--0--0--0-000000-|
|--------------------------------| 3x |--------------------------|
|--------------------------------|    |--------------------------|

Outro

|-----------------------------------------------------------------|
|-----------------------------------------------------------------|
|11111111111111111111111111111111-33333333333333333333333333333333| x3
|-----------------------------------------------------------------|

|-----|
|-----|
|-5~--|
|-----|
            
Tabs too difficult? Try these video lessons and learn fast.


comments powered by Disqus
↑ Back to top | Tablatures and chords are parodies/interpretations of the original songs. You may use it for private study, scholarship, research or language learning purposes only