» » »

Rise Against, Blood To Bleed Tabs (ver.1)

Artists:  A B C D E F G H I J K L M N O P Q R S T U V W X Y Z # 

Blood To Bleed Tabs (ver.1)

Rise Against Tabs
 Rating:
4/5 (4 votes)
Blood To Bleed lessons Tabs too difficult? Try these video lessons and learn fast
1
                Tuning:Standard Tuning

(Bass Intro)

Verse(x2)
-6-6666666-444-6-666666666-222-6-666666666666-444---------666666-|
-6-6666666-444-6-666666666-222-6-666666666666-444-222-444-666666-|
-4-4444444-222-4-444444444-000-4-444444444444-222-222-444-444444-|
--------------------------------------------------000-222--------|
 pm******* ***   ********* ***   ************ ***

Chorus (Guitar 1)
----------------------------------------|
----------------------------------------|
-99999-8-99999-8-111111-13-13-13-999-888|
-xxxxx-x-xxxxx-x-x-x-x--x--x--x--xxx-xxx|
-77777-6-77777-6-9-9-9--11-11-11-777-666|
----------------------------------------|
                   
------------------------------------|
------------------------------------|
-99999-8-99999-8-888-11-11-11-999999|
-xxxxx-x-xxxxx-x-xxx-x--x--x--xxxxxx|
-77777-6-77777-6-666-9--9--9--777777|
------------------------------------|
----------------------------------------|
----------------------------------------|
-99999-8-99999-8-111111-13-13-13-999-888|
-xxxxx-x-xxxxx-x-x-x-x--x--x--x--xxx-xxx|
-77777-6-77777-6-9-9-9--11-11-11-777-666|
----------------------------------------|

------------------------------------|
------------------------------------|
-99999-8-99999-8-999-13-13-13-11-11-|
-xxxxx-x-xxxxx-x-xxx-x--x--x--x--x--|
-77777-6-77777-6-777-11-11-11-9--9--|
------------------------------------|

Chorus (Guitar 2)
----------------------------|
----------------------------|
-222222-222222-444444-666666|
-222222-222222-444444-666666|
-000000-222222-222222-444444|
--------000000--------------|

-----------------------------|
-----------------------------|
-222222-222222-444444-666-444|
-222222-222222-444444-666-444|
-000000-222222-222222-444-222|
--------000000---------------|

----------------------------|
----------------------------|
-222222-222222-444444-666666|
-222222-222222-444444-666666|
-000000-222222-222222-444444|
--------000000--------------|

------------------------------------------------|
------------------------------------------------|
-222222-222222-444444-222222222222-444444444444-|
-222222-222222-444444-222222222222-444444444444-|
-000000-222222-222222-000000000000-222222222222-|
--------000000----------------------------------|
Verse (x2)

Chorus (x2)

Solo:
-444444-----0-2-0---7777----9----------------------------|
--------2-4-------4------10---9--------------------------|
--------------------------------/6-/8-/9-/11-9999-11-9-8-|
---------------------------------------------------------|
---------------------------------------------------------|
---------------------------------------------------------|


-44444-5-777777-12-12-12-12-9-12-11-7-9999-7-5-444444-5-4-0~---------------|

2nd Guitar (behind the solo) (x2)
-666666666666-222222222222--------------444444444444-----------------------|
-666666666666-222222222222-222222222222-444444444444-----------------------|
-444444444444-000000000000-222222222222-222222222222-----------------------|
---------------------------000000000000------------------------------------|
         Lead plays this during bridge in  backround
part 1
---------------------------------|
-2-2-2-2-2-2-2-2-0-2-4-----------|
---------------------------------|  x3 then ...
---------------------------------|
---------------------------------|
---------------------------------|
part 2
---------------------------------|
-------4-4-4-2-2-2--0-2-4-0------|
-1-1-1---------------------------| then go back into part 1
---------------------------------|
---------------------------------|
---------------------------------|


Bridge (x3)
----------------------------------------------------|----------------------|
----------------------------------------------------|----------------------|
-666666666666-222222222222--------------------------|6---------------------|
-666666666666-222222222222-222222222222-666666666666|6---------------------|
-444444444444-000000000000-222222222222-666666666666|4---------------------|
---------------------------000000000000-444444444444|----------------------|

(Bass Part)

Chorus (x2)

On chorus the last time, do the 4th endings like so; 4 times
e|-------------------------------------------------------------------------|
B|-------------------------------------------------------------------------|
G|-999999-13-13-13--11-11-11-99-8------------------------------------------|
D|-xxxxxx-x--x--x---x--x--x--xx-x------------------------------------------|
A|-777777-11-11-11--9--9--9--77-6------------------------------------------|
E|-------------------------------------------------------------------------|

End on:
---
---
-6-
-6-
-4-
---

| /  slide up
| \  slide down
| h  hammer-on
| p  pull-off
| ~  vibrato
| +  harmonic
| x  Mute note
            
Submit corrections

comments powered by Disqus
↑ Back to top | Rise Against Tabs for Blood To Bleed. Lyrics for acoustic guitar and electric guitar. 1 Tablatures and chords are parodies/interpretations of the original songs. You may use it for private study, scholarship, research or language learning purposes only